  0
SECTION
  2
HEADER
  9
$ACADVER
  1
AC1009
  9
$INSBASE
 10
0.0
 20
0.0
 30
0.0
  9
$EXTMIN
 10
-450.02746372486871
 20
-673.91620263281231
 30
-0.0015258207003583
  9
$EXTMAX
 10
450.02746791582013
 20
664.16801378504169
 30
0.0000000349246037
  9
$LIMMIN
 10
0.0
 20
0.0
  9
$LIMMAX
 10
0.0
 20
0.0
  9
$ORTHOMODE
 70
     0
  9
$REGENMODE
 70
     1
  9
$FILLMODE
 70
     1
  9
$QTEXTMODE
 70
     0
  9
$MIRRTEXT
 70
     1
  9
$DRAGMODE
 70
     2
  9
$LTSCALE
 40
25.399999999999999
  9
$OSMODE
 70
   231
  9
$ATTMODE
 70
     1
  9
$TEXTSIZE
 40
0.0
  9
$TRACEWID
 40
1.0
  9
$TEXTSTYLE
  7
STANDARD
  9
$CLAYER
  8
DATA
  9
$CELTYPE
  6
BYLAYER
  9
$CECOLOR
 62
   256
  9
$DIMSCALE
 40
1.0
  9
$DIMASZ
 40
0.18
  9
$DIMEXO
 40
0.0625
  9
$DIMDLI
 40
0.38
  9
$DIMRND
 40
0.0
  9
$DIMDLE
 40
0.0
  9
$DIMEXE
 40
0.18
  9
$DIMTP
 40
0.0
  9
$DIMTM
 40
0.0
  9
$DIMTXT
 40
0.18
  9
$DIMCEN
 40
0.09
  9
$DIMTSZ
 40
0.0
  9
$DIMTOL
 70
     0
  9
$DIMLIM
 70
     0
  9
$DIMTIH
 70
     1
  9
$DIMTOH
 70
     1
  9
$DIMSE1
 70
     0
  9
$DIMSE2
 70
     0
  9
$DIMTAD
 70
     0
  9
$DIMZIN
 70
     0
  9
$DIMBLK
  1

  9
$DIMASO
 70
     1
  9
$DIMSHO
 70
     1
  9
$DIMPOST
  1

  9
$DIMAPOST
  1

  9
$DIMALT
 70
     0
  9
$DIMALTD
 70
     2
  9
$DIMALTF
 40
25.399999999999999
  9
$DIMLFAC
 40
1.0
  9
$DIMTOFL
 70
     0
  9
$DIMTVP
 40
0.0
  9
$DIMTIX
 70
     0
  9
$DIMSOXD
 70
     0
  9
$DIMSAH
 70
     0
  9
$DIMBLK1
  1

  9
$DIMBLK2
  1

  9
$DIMSTYLE
  2
STANDARD
  9
$DIMCLRD
 70
     0
  9
$DIMCLRE
 70
     0
  9
$DIMCLRT
 70
     0
  9
$DIMTFAC
 40
1.0
  9
$DIMGAP
 40
0.09
  9
$LUNITS
 70
     2
  9
$LUPREC
 70
     4
  9
$SKETCHINC
 40
0.1
  9
$FILLETRAD
 40
0.0
  9
$AUNITS
 70
     0
  9
$AUPREC
 70
     0
  9
$MENU
  1
acad
  9
$ELEVATION
 40
0.0
  9
$PELEVATION
 40
0.0
  9
$THICKNESS
 40
0.0
  9
$LIMCHECK
 70
     0
  9
$BLIPMODE
 70
     0
  9
$CHAMFERA
 40
0.0
  9
$CHAMFERB
 40
0.0
  9
$SKPOLY
 70
     0
  9
$TDCREATE
 40
2456136.7089236118
  9
$TDUPDATE
 40
2456136.7152254861
  9
$TDINDWG
 40
0.0003960301
  9
$TDUSRTIMER
 40
0.0003960301
  9
$USRTIMER
 70
     1
  9
$ANGBASE
 50
0.0
  9
$ANGDIR
 70
     0
  9
$PDMODE
 70
     1
  9
$PDSIZE
 40
-2.0
  9
$PLINEWID
 40
0.0
  9
$COORDS
 70
     2
  9
$SPLFRAME
 70
     0
  9
$SPLINETYPE
 70
     6
  9
$SPLINESEGS
 70
     8
  9
$ATTDIA
 70
     0
  9
$ATTREQ
 70
     1
  9
$HANDLING
 70
     1
  9
$HANDSEED
  5
4E7
  9
$SURFTAB1
 70
     6
  9
$SURFTAB2
 70
     6
  9
$SURFTYPE
 70
     6
  9
$SURFU
 70
     6
  9
$SURFV
 70
     6
  9
$UCSNAME
  2

  9
$UCSORG
 10
0.0
 20
0.0
 30
0.0
  9
$UCSXDIR
 10
1.0
 20
0.0
 30
0.0
  9
$UCSYDIR
 10
0.0
 20
1.0
 30
0.0
  9
$PUCSNAME
  2

  9
$PUCSORG
 10
0.0
 20
0.0
 30
0.0
  9
$PUCSXDIR
 10
1.0
 20
0.0
 30
0.0
  9
$PUCSYDIR
 10
0.0
 20
1.0
 30
0.0
  9
$USERI1
 70
     0
  9
$USERI2
 70
     0
  9
$USERI3
 70
     0
  9
$USERI4
 70
     0
  9
$USERI5
 70
     0
  9
$USERR1
 40
0.0
  9
$USERR2
 40
0.0
  9
$USERR3
 40
0.0
  9
$USERR4
 40
0.0
  9
$USERR5
 40
0.0
  9
$WORLDVIEW
 70
     1
  9
$SHADEDGE
 70
     3
  9
$SHADEDIF
 70
    70
  9
$TILEMODE
 70
     1
  9
$MAXACTVP
 70
    64
  9
$PLIMCHECK
 70
     0
  9
$PEXTMIN
 10
1.0000000000000000E+020
 20
1.0000000000000000E+020
 30
1.0000000000000000E+020
  9
$PEXTMAX
 10
-1.0000000000000000E+020
 20
-1.0000000000000000E+020
 30
-1.0000000000000000E+020
  9
$PLIMMIN
 10
0.0
 20
0.0
  9
$PLIMMAX
 10
12.0
 20
9.0
  9
$UNITMODE
 70
     0
  9
$VISRETAIN
 70
     0
  9
$PLINEGEN
 70
     1
  9
$PSLTSCALE
 70
     0
  0
ENDSEC
  0
SECTION
  2
TABLES
  0
TABLE
  2
VPORT
 70
     1
  0
VPORT
  2
*ACTIVE
 70
     0
 10
0.0
 20
0.0
 11
1.0
 21
1.0
 12
0.0000020954755655
 22
-3.5318118909701748
 13
0.0
 23
0.0
 14
1.0
 24
1.0
 15
0.0
 25
0.0
 16
0.0
 26
0.0
 36
1.0
 17
0.0
 27
0.0
 37
0.0
 40
1345.9284265269409
 41
2.1881578947368419
 42
50.0
 43
0.0
 44
0.0
 50
0.0
 51
0.0
 71
     0
 72
  2000
 73
     1
 74
     1
 75
     0
 76
     0
 77
     0
 78
     0
  0
ENDTAB
  0
TABLE
  2
LTYPE
 70
    12
  0
LTYPE
  2
CONTINUOUS
 70
     0
  3
Solid line
 72
    65
 73
     0
 40
0.0
  0
LTYPE
  2
PHANTOM2
 70
     0
  3
___ _ _ ___ _ _ ___ _ _ ___ _ _
 72
    65
 73
     6
 40
1.25
 49
0.625
 49
-0.125
 49
0.125
 49
-0.125
 49
0.125
 49
-0.125
  0
ENDTAB
  0
TABLE
  2
LAYER
 70
     5
  0
LAYER
  2
0
 70
     0
 62
     7
  6
CONTINUOUS
  0
LAYER
  2
DATA
 70
     0
 62
     7
  6
CONTINUOUS
  0
LAYER
  2
HIBINO-BASE
 70
     0
 62
     7
  6
CONTINUOUS
  0
LAYER
  2
SPEC
 70
     0
 62
     7
  6
CONTINUOUS
  0
LAYER
  2
DIMNSIONS
 70
     0
 62
     7
  6
CONTINUOUS
  0
ENDTAB
  0
TABLE
  2
STYLE
 70
     3
  0
STYLE
  2
STANDARD
 70
     0
 40
0.0
 41
1.0
 50
0.0
 71
     0
 42
0.0
  3
txt
  4
BIGFONT.SHX
  0
ENDTAB
  0
TABLE
  2
VIEW
 70
     0
  0
ENDTAB
  0
TABLE
  2
UCS
 70
     0
  0
ENDTAB
  0
TABLE
  2
APPID
 70
     4
  0
APPID
  2
ACAD
 70
     0
  0
APPID
  2
ACADANNOTATIVE
 70
     0
  0
APPID
  2
ACAD_NAV_VCDISPLAY
 70
     0
  0
APPID
  2
ACAD_MLEADERVER
 70
     0
  0
ENDTAB
  0
TABLE
  2
DIMSTYLE
 70
     2
  0
DIMSTYLE
  2
STANDARD
 70
     0
  3

  4

  5

  6

  7

 40
1.0
 41
0.18
 42
0.0625
 43
0.38
 44
0.18
 45
0.0
 46
0.0
 47
0.0
 48
0.0
140
0.18
141
0.09
142
0.0
143
25.399999999999999
144
1.0
145
0.0
146
1.0
147
0.09
 71
     0
 72
     0
 73
     1
 74
     1
 75
     0
 76
     0
 77
     0
 78
     0
170
     0
171
     2
172
     0
173
     0
174
     0
175
     0
176
     0
177
     0
178
     0
  0
ENDTAB
  0
ENDSEC
  0
SECTION
  2
BLOCKS
  0
BLOCK
  8
0
  2
$MODEL_SPACE
 70
     0
 10
0.0
 20
0.0
 30
0.0
  3
$MODEL_SPACE
  1

  0
ENDBLK
  5
466
  8
0
  0
BLOCK
 67
     1
  8
0
  2
$PAPER_SPACE
 70
     0
 10
0.0
 20
0.0
 30
0.0
  3
$PAPER_SPACE
  1

  0
ENDBLK
  5
462
 67
     1
  8
0
  0
ENDSEC
  0
SECTION
  2
ENTITIES
  0
LINE
  5
2C
  8
HIBINO-BASE
  6
CONTINUOUS
 62
     7
 10
-450.0
 20
664.12725999999986
 30
0.0
 11
450.0
 21
664.12725999999986
 31
0.0
  0
LINE
  5
2D
  8
HIBINO-BASE
  6
CONTINUOUS
 62
     7
 10
450.0
 20
-635.87274000000002
 30
0.0
 11
-450.0
 21
-635.87274000000002
 31
0.0
  0
LINE
  5
2E
  8
HIBINO-BASE
  6
CONTINUOUS
 62
     7
 10
-450.0
 20
-635.87274000000002
 30
0.0
 11
-450.0
 21
664.12725999999986
 31
0.0
  0
TEXT
  5
2F
  8
HIBINO-BASE
 62
     7
 10
-414.07999999999993
 20
-667.91612899999984
 30
0.0
 40
18.00022089843749
  1
Hibino Corporation
 41
0.7
 11
-414.07999999999993
 21
-649.91590810156231
 31
0.0
 73
     3
  0
LINE
  5
30
  8
HIBINO-BASE
  6
CONTINUOUS
 62
     7
 10
450.0
 20
664.12725999999986
 30
0.0
 11
450.0
 21
-635.87274000000002
 31
0.0
  0
LINE
  5
31
  8
HIBINO-BASE
  6
CONTINUOUS
 62
     7
 10
0.0
 20
-523.37274000000002
 30
0.0
 11
450.0
 21
-523.37274000000002
 31
0.0
  0
LINE
  5
32
  8
HIBINO-BASE
  6
CONTINUOUS
 62
     7
 10
0.0
 20
-635.87274000000002
 30
0.0
 11
0.0
 21
-523.37274000000002
 31
0.0
  0
TEXT
  5
33
  8
HIBINO-BASE
 62
     7
 10
4.4999999999999991
 20
-535.91620666666665
 30
0.0
 40
8.1442057291666661
  1
NOTE
 41
0.7
 11
4.5
 21
-527.77200093750002
 31
0.0
 73
     3
  0
LINE
  5
34
  8
HIBINO-BASE
  6
CONTINUOUS
 62
     7
 10
175.0
 20
-635.87274000000002
 30
0.0
 11
175.0
 21
-523.37274000000002
 31
0.0
  0
TEXT
  5
35
  8
HIBINO-BASE
 62
     7
 10
179.5
 20
-535.91620666666665
 30
0.0
 40
8.1442057291666661
  1
TITLE
 41
0.7
 11
179.5
 21
-527.77200093750002
 31
0.0
 73
     3
  0
TEXT
  5
36
  8
HIBINO-BASE
 62
     7
 10
250.34195
 20
-667.91612899999984
 30
0.0
 40
18.00022089843749
  1
ヒビノ株式会社
 41
0.7
 11
250.34195
 21
-649.91590810156231
 31
0.0
 73
     3
  0
LINE
  5
37
  8
HIBINO-BASE
  6
CONTINUOUS
 62
     7
 10
0.0
 20
-585.87274000000002
 30
0.0
 11
450.0
 21
-585.87274000000002
 31
0.0
  0
TEXT
  5
38
  8
HIBINO-BASE
 62
     7
 10
242.0
 20
-598.13460666666663
 30
0.0
 40
8.1442057291666661
  1
DRAWN
 41
0.7
 11
242.0
 21
-589.99040093749989
 31
0.0
 73
     3
  0
TEXT
  5
39
  8
HIBINO-BASE
 62
     7
 10
117.0
 20
-598.13460666666663
 30
0.0
 40
8.1442057291666661
  1
DATE
 41
0.7
 11
117.0
 21
-589.99040093749989
 31
0.0
 73
     3
  0
TEXT
  5
3A
  8
HIBINO-BASE
 62
     7
 10
67.0
 20
-598.13460666666663
 30
0.0
 40
8.1442057291666661
  1
SCALE
 41
0.7
 11
67.0
 21
-589.99040093749989
 31
0.0
 73
     3
  0
TEXT
  5
3B
  8
HIBINO-BASE
 62
     7
 10
179.5
 20
-598.13460666666663
 30
0.0
 40
8.1442057291666661
  1
DESIGN
 41
0.7
 11
179.5
 21
-589.99040093749989
 31
0.0
 73
     3
  0
TEXT
  5
3C
  8
HIBINO-BASE
 62
     7
 10
367.0
 20
-598.13460666666663
 30
0.0
 40
8.1442057291666661
  1
DRAWING NO.
 41
0.7
 11
367.0
 21
-589.99040093749989
 31
0.0
 73
     3
  0
TEXT
  5
3D
  8
HIBINO-BASE
 62
     7
 10
304.49999999999989
 20
-598.13460666666663
 30
0.0
 40
8.1442057291666661
  1
CHECK
 41
0.7
 11
304.49999999999989
 21
-589.99040093749989
 31
0.0
 73
     3
  0
LINE
  5
3E
  8
HIBINO-BASE
  6
CONTINUOUS
 62
     7
 10
71.874999999999986
 20
-629.62274000000002
 30
0.0
 11
90.625
 21
-610.87274000000002
 31
0.0
  0
TEXT
  5
3F
  8
HIBINO-BASE
 62
     7
 10
68.749999999999986
 20
-616.41745666666645
 30
0.0
 40
8.1442057291666661
  1
1
 41
0.7
 11
68.749999999999986
 21
-608.27325093749982
 31
0.0
 73
     3
  0
LINE
  5
40
  8
HIBINO-BASE
  6
CONTINUOUS
 62
     7
 10
62.5
 20
-635.87274000000002
 30
0.0
 11
62.5
 21
-585.87274000000002
 31
0.0
  0
LINE
  5
41
  8
HIBINO-BASE
  6
CONTINUOUS
 62
     7
 10
112.5
 20
-635.87274000000002
 30
0.0
 11
112.5
 21
-585.87274000000002
 31
0.0
  0
LINE
  5
42
  8
HIBINO-BASE
  6
CONTINUOUS
 62
     7
 10
237.5
 20
-585.87274000000002
 30
0.0
 11
237.5
 21
-635.87274000000002
 31
0.0
  0
LINE
  5
43
  8
HIBINO-BASE
  6
CONTINUOUS
 62
     7
 10
362.5
 20
-585.87274000000002
 30
0.0
 11
362.5
 21
-635.87274000000002
 31
0.0
  0
LINE
  5
44
  8
HIBINO-BASE
  6
CONTINUOUS
 62
     7
 10
300.0
 20
-635.87274000000002
 30
0.0
 11
300.0
 21
-585.87274000000002
 31
0.0
  0
TEXT
  5
45
  8
HIBINO-BASE
 62
     7
 10
116.78270000000001
 20
-621.55450666666638
 30
0.0
 40
8.1442057291666661
  1
'12.07.
 41
0.7
 11
116.78270000000001
 21
-613.41030093749987
 31
0.0
 73
     3
  0
TEXT
  5
46
  8
HIBINO-BASE
 62
     7
 10
87.5
 20
-625.79245666666645
 30
0.0
 40
8.1442057291666661
  1
5
 41
0.7
 11
87.5
 21
-617.64825093749982
 31
0.0
 73
     3
  0
TEXT
  5
47
  8
HIBINO-BASE
 62
     7
 10
245.02905005517309
 20
-621.55450666666638
 30
0.0
 40
8.1442057291666661
  1
Ootake
 41
0.7
 11
245.02905005517309
 21
-613.41030093749987
 31
0.0
 73
     3
  0
TEXT
  5
48
  8
HIBINO-BASE
 62
     7
 10
19.416666666666739
 20
-625.99274000000014
 30
0.0
 40
16.288411458333329
  1
A4
 41
0.7
 11
19.416666666666739
 21
-609.70432854166665
 31
0.0
 73
     3
  0
TEXT
  5
49
  8
HIBINO-BASE
 62
     7
 10
4.791666666666659
 20
-598.97001499999965
 30
0.0
 40
8.1442057291666661
  1
PAPER SIZE
 41
0.7
 11
4.7916666666666599
 21
-590.82580927083313
 31
0.0
 73
     3
  0
TEXT
  5
4A
  8
SPEC
 62
     7
 10
-406.25
 20
621.09361000000001
 30
0.0
 40
12.21630859375
  1
仕様
 41
0.7
 11
-406.25
 21
633.3099185937499
 31
0.0
 73
     3
  0
LINE
  5
4B
  8
SPEC
  6
CONTINUOUS
 62
     7
 10
-412.5
 20
614.12725999999986
 30
0.0
 11
324.99704999999977
 21
614.12725999999986
 31
0.0
  0
LINE
  5
4C
  8
SPEC
  6
CONTINUOUS
 62
     7
 10
-412.5
 20
595.37733499999979
 30
0.0
 11
324.99704999999977
 21
595.37733499999979
 31
0.0
  0
LINE
  5
4D
  8
SPEC
  6
CONTINUOUS
 62
     7
 10
-412.5
 20
576.62741000000017
 30
0.0
 11
324.99704999999977
 21
576.62741000000017
 31
0.0
  0
LINE
  5
4E
  8
SPEC
  6
CONTINUOUS
 62
     7
 10
-412.5
 20
614.12725999999986
 30
0.0
 11
-412.5
 21
482.87740999999988
 31
0.0
  0
LINE
  5
4F
  8
SPEC
  6
CONTINUOUS
 62
     7
 10
-250.00065000000009
 20
614.12725999999986
 30
0.0
 11
-250.00065000000009
 21
482.87740999999988
 31
0.0
  0
TEXT
  5
50
  8
SPEC
 62
     7
 10
-408.46081271177269
 20
525.21739231871425
 30
0.0
 40
9.5015733506944464
  1
寸法
 41
0.7
 11
-408.46081271177269
 21
534.71896566940882
 31
0.0
 73
     3
  0
TEXT
  5
51
  8
SPEC
 62
     7
 10
-408.21213572044189
 20
506.14707344673519
 30
0.0
 40
9.5015733506944464
  1
重量
 41
0.7
 11
-408.21213572044189
 21
515.64864679742959
 31
0.0
 73
     3
  0
TEXT
  5
52
  8
SPEC
 62
     7
 10
-246.0681622749087
 20
524.96154956307805
 30
0.0
 40
9.5015733506944464
  1
19\U+03A6\U+00D7573mm(突起部含まず)
 41
0.7
 11
-246.0681622749087
 21
534.46312291377251
 31
0.0
 73
     3
  0
TEXT
  5
53
  8
SPEC
 62
     7
 10
-245.6353522099601
 20
506.4057864578001
 30
0.0
 40
9.5015733506944464
  1
約190g
 41
0.7
 11
-245.6353522099601
 21
515.90735980849445
 31
0.0
 73
     3
  0
LINE
  5
54
  8
SPEC
  6
CONTINUOUS
 62
     7
 10
324.99704999999977
 20
614.12725999999986
 30
0.0
 11
324.99704999999977
 21
482.87740999999988
 31
0.0
  0
TEXT
  5
55
  8
SPEC
 62
     7
 10
-409.95106884435802
 20
600.07883325286798
 30
0.0
 40
9.5015733506944464
  1
ローカットフィルター
 41
0.7
 11
-409.95106884435802
 21
609.58040660356244
 31
0.0
 73
     3
  0
TEXT
  5
56
  8
SPEC
 62
     7
 10
-408.79765600156452
 20
581.33853739008714
 30
0.0
 40
9.5015733506944464
  1
インピーダンス
 41
0.7
 11
-408.79765600156452
 21
590.8401107407816
 31
0.0
 73
     3
  0
TEXT
  5
57
  8
SPEC
 62
     7
 10
-245.41542786849129
 20
599.61224309525585
 30
0.0
 40
9.5015733506944464
  1
200Hz(6dB/oct)＊ジャンパーで設定
 41
0.7
 11
-245.41542786849129
 21
609.11381644595042
 31
0.0
 73
     3
  0
TEXT
  5
58
  8
SPEC
 62
     7
 10
-245.46279939538661
 20
581.15666250778509
 30
0.0
 40
9.5015733506944464
  1
600\U+03A9以下
 41
0.7
 11
-245.46279939538661
 21
590.65823585847966
 31
0.0
 73
     3
  0
TEXT
  5
59
  8
SPEC
 62
     7
 10
-407.9845561347978
 20
487.75061478925329
 30
0.0
 40
9.5015733506944464
  1
付属品
 41
0.7
 11
-407.9845561347978
 21
497.25218813994769
 31
0.0
 73
     3
  0
TEXT
  5
5A
  8
SPEC
 62
     7
 10
-245.1798231492256
 20
487.4387163033071
 30
0.0
 40
9.5015733506944464
  1
XLRコネクタ ー用埋込パーツ(PS 3 F-LOCK)
 41
0.7
 11
-245.1798231492256
 21
496.94028965400162
 31
0.0
 73
     3
  0
TEXT
  5
5B
  8
SPEC
 62
     7
 10
-408.41215959204931
 20
562.4863024356556
 30
0.0
 40
9.5015733506944464
  1
電源
 41
0.7
 11
-408.41215959204931
 21
571.98787578634995
 31
0.0
 73
     3
  0
TEXT
  5
5C
  8
SPEC
 62
     7
 10
-246.9914554175833
 20
562.71635175595338
 30
0.0
 40
9.5015733506944464
  1
ファンタムDC9～52V/3mA以下
 41
0.7
 11
-246.9914554175833
 21
572.21792510664784
 31
0.0
 73
     3
  0
TEXT
  5
5D
  8
SPEC
 62
     7
 10
-409.14805175777161
 20
544.10499807741473
 30
0.0
 40
9.5015733506944464
  1
コネクター
 41
0.7
 11
-409.14805175777161
 21
553.60657142810908
 31
0.0
 73
     3
  0
TEXT
  5
5E
  8
SPEC
 62
     7
 10
-245.15143348593119
 20
543.51031113498641
 30
0.0
 40
9.5015733506944464
  1
XLR3ピン
 41
0.7
 11
-245.15143348593119
 21
553.01188448568075
 31
0.0
 73
     3
  0
LINE
  5
5F
  8
SPEC
  6
CONTINUOUS
 62
     7
 10
-412.5
 20
557.87741000000005
 30
0.0
 11
324.99704999999977
 21
557.87741000000005
 31
0.0
  0
LINE
  5
60
  8
SPEC
  6
CONTINUOUS
 62
     7
 10
-412.5
 20
539.12741000000005
 30
0.0
 11
324.99704999999977
 21
539.12741000000005
 31
0.0
  0
LINE
  5
61
  8
SPEC
  6
CONTINUOUS
 62
     7
 10
-412.5
 20
520.37741000000005
 30
0.0
 11
324.99704999999977
 21
520.37741000000005
 31
0.0
  0
LINE
  5
62
  8
SPEC
  6
CONTINUOUS
 62
     7
 10
-412.5
 20
501.62741
 30
0.0
 11
324.99704999999977
 21
501.62741
 31
0.0
  0
LINE
  5
63
  8
SPEC
  6
CONTINUOUS
 62
     7
 10
-412.5
 20
482.87741
 30
0.0
 11
324.99704999999977
 21
482.87741
 31
0.0
  0
TEXT
  5
64
  8
DIMNSIONS
 62
     7
 10
-100.0
 20
-574.52528999999993
 30
0.0
 40
12.21630859375
  1
(単位：mm)
 41
0.7
 11
-100.0
 21
-562.30898140624993
 31
0.0
 73
     3
  0
LINE
  5
65
  8
DIMNSIONS
  6
CONTINUOUS
 62
     7
 10
-209.4971258544613
 20
-423.04987317101393
 30
0.0
 11
-230.00000000001131
 21
-430.00000000001381
 31
0.0
  0
LINE
  5
66
  8
DIMNSIONS
  6
CONTINUOUS
 62
     7
 10
-209.4971258544613
 20
-423.04987317101393
 30
0.0
 11
-220.22833315542721
 21
-430.28816389151689
 31
0.0
  0
LINE
  5
67
  8
DIMNSIONS
  6
CONTINUOUS
 62
     7
 10
-209.4971258544613
 20
-423.04987317101393
 30
0.0
 11
-222.40976935062631
 21
-423.95281316446398
 31
0.0
  0
LINE
  5
68
  8
DIMNSIONS
  6
CONTINUOUS
 62
     7
 10
-230.00000000001131
 20
-430.00000000001381
 30
0.0
 11
-254.1111111111224
 21
-430.00000000001381
 31
0.0
  0
TEXT
  5
69
  8
DIMNSIONS
 62
     7
 10
-254.1111111111224
 20
-428.01222222223601
 30
0.0
 40
5.4294704861111107
  1
\U+03C619
 41
0.7
 11
-254.1111111111224
 21
-422.58275173612492
 31
0.0
 73
     3
  0
LINE
  5
6A
  8
DIMNSIONS
  6
CONTINUOUS
 62
     7
 10
-207.20120158700979
 20
202.02333815521541
 30
0.0
 11
-232.0555555555668
 21
209.5277777777639
 31
0.0
  0
LINE
  5
6B
  8
DIMNSIONS
  6
CONTINUOUS
 62
     7
 10
-207.20120158700979
 20
202.02333815521541
 30
0.0
 11
-220.1374912009689
 21
202.47508334290299
 31
0.0
  0
LINE
  5
6C
  8
DIMNSIONS
  6
CONTINUOUS
 62
     7
 10
-207.20120158700979
 20
202.02333815521541
 30
0.0
 11
-218.17848442956739
 21
208.8827057707698
 31
0.0
  0
LINE
  5
6D
  8
DIMNSIONS
  6
CONTINUOUS
 62
     7
 10
-232.0555555555668
 20
209.5277777777639
 30
0.0
 11
-256.16666666667788
 21
209.5277777777639
 31
0.0
  0
TEXT
  5
6E
  8
DIMNSIONS
 62
     7
 10
-256.16666666667788
 20
211.5155555555416
 30
0.0
 40
5.4294704861111107
  1
\U+03C614
 41
0.7
 11
-256.16666666667788
 21
216.94502604165271
 31
0.0
 73
     3
  0
LINE
  5
6F
  8
DIMNSIONS
  6
CONTINUOUS
 62
     7
 10
-220.0000000000112
 20
-390.00000000001381
 30
0.0
 11
-280.0
 21
-390.00000000001381
 31
0.0
  0
LINE
  5
70
  8
DIMNSIONS
  6
CONTINUOUS
 62
     7
 10
-217.5000000000112
 20
182.9999999999861
 30
0.0
 11
-280.0
 21
182.9999999999861
 31
0.0
  0
LINE
  5
71
  8
DIMNSIONS
  6
CONTINUOUS
 62
     7
 10
-270.0
 20
-390.00000000001381
 30
0.0
 11
-270.0
 21
182.9999999999861
 31
0.0
  0
LINE
  5
72
  8
DIMNSIONS
  6
CONTINUOUS
 62
     7
 10
-270.0
 20
-390.00000000001381
 30
0.0
 11
-273.3501989757512
 21
-377.49688720704512
 31
0.0
  0
LINE
  5
73
  8
DIMNSIONS
  6
CONTINUOUS
 62
     7
 10
-270.0
 20
-390.00000000001381
 30
0.0
 11
-266.6498010242488
 21
-377.49688720704512
 31
0.0
  0
LINE
  5
74
  8
DIMNSIONS
  6
CONTINUOUS
 62
     7
 10
-270.0
 20
182.9999999999861
 30
0.0
 11
-266.6498010242488
 21
170.49688720701741
 31
0.0
  0
LINE
  5
75
  8
DIMNSIONS
  6
CONTINUOUS
 62
     7
 10
-270.0
 20
182.9999999999861
 30
0.0
 11
-273.3501989757512
 21
170.49688720701741
 31
0.0
  0
TEXT
  5
76
  8
DIMNSIONS
 62
     7
 10
-274.96944451803961
 20
-116.7291666666805
 30
0.0
 40
13.573676619804891
  1
573
 50
90.0
 41
0.7
 11
-288.54312113784448
 21
-116.7291666666805
 31
0.0
 73
     3
  0
TEXT
  5
77
  8
DATA
 62
     7
 10
250.0
 20
-580.2182899999998
 30
0.0
 40
12.21630859375
  1
GN 50 E
 41
0.7
 11
250.0
 21
-568.0019814062498
 31
0.0
 73
     3
  0
TEXT
  5
78
  8
DATA
 62
     7
 10
250.0
 20
-543.96828999999991
 30
0.0
 40
12.21630859375
  1
AKG
 41
0.7
 11
250.0
 21
-531.75198140624991
 31
0.0
 73
     3
  0
TEXT
  5
79
  8
DATA
 62
     7
 10
-400.0
 20
-614.68273999999985
 30
0.0
 40
8.1442057291666661
  1
仕様および外観は予告なく変更されることがありますので、ご了承ください。
 41
0.7
 11
-400.0
 21
-606.53853427083334
 31
0.0
 73
     3
  0
LINE
  5
7A
  8
DATA
  6
CONTINUOUS
 62
     7
 10
-210.00000000001111
 20
-390.00000000001381
 30
0.0
 11
-210.00000000001111
 21
-328.83366693284972
 31
0.0
  0
LINE
  5
7B
  8
DATA
  6
CONTINUOUS
 62
     7
 10
-191.0000000000112
 20
-390.00000000001381
 30
0.0
 11
-210.00000000001111
 21
-390.00000000001381
 31
0.0
  0
LINE
  5
7C
  8
DATA
  6
CONTINUOUS
 62
     7
 10
-207.5000000000112
 20
182.9999999999861
 30
0.0
 11
-193.5000000000112
 21
182.9999999999861
 31
0.0
  0
CIRCLE
  5
7D
  8
DATA
  6
CONTINUOUS
 62
     7
 10
-200.5000000000112
 20
-420.0000000000137
 30
0.0
 40
9.5
  0
ARC
  5
7E
  8
DATA
  6
CONTINUOUS
 62
     7
 10
-200.50000000001211
 20
-420.00000000001518
 30
0.0
 40
8.0000000000016698
 50
65.640235005786835
 51
48.689305883290999
  0
LINE
  5
7F
  8
DATA
  6
CONTINUOUS
 62
     7
 10
-207.0000000000112
 20
173.72999999998609
 30
0.0
 11
-207.5000000000112
 21
182.9999999999861
 31
0.0
  0
LINE
  5
80
  8
DATA
  6
CONTINUOUS
 62
     7
 10
-194.00000000001111
 20
173.72999999998609
 30
0.0
 11
-193.5000000000112
 21
182.9999999999861
 31
0.0
  0
LINE
  5
81
  8
DATA
  6
CONTINUOUS
 62
     7
 10
-206.60000000001119
 20
170.92999999998611
 30
0.0
 11
-194.4000000000112
 21
170.92999999998611
 31
0.0
  0
LINE
  5
82
  8
DATA
  6
CONTINUOUS
 62
     7
 10
-205.25641691414529
 20
144.64169141339599
 30
0.0
 11
-195.74358308587719
 21
144.64169141339599
 31
0.0
  0
LINE
  5
83
  8
DATA
  6
CONTINUOUS
 62
     7
 10
-206.60000000001119
 20
170.92999999998611
 30
0.0
 11
-207.0000000000112
 21
173.72999999998609
 31
0.0
  0
LINE
  5
84
  8
DATA
  6
CONTINUOUS
 62
     7
 10
-194.4000000000112
 20
170.92999999998611
 30
0.0
 11
-194.00000000001111
 21
173.72999999998609
 31
0.0
  0
LINE
  5
85
  8
DATA
  6
CONTINUOUS
 62
     7
 10
-205.25641691414529
 20
144.64169141339599
 30
0.0
 11
-205.35000000001119
 21
153.9999999999861
 31
0.0
  0
LINE
  5
86
  8
DATA
  6
CONTINUOUS
 62
     7
 10
-195.74358308587711
 20
144.64169141339599
 30
0.0
 11
-195.6500000000112
 21
153.9999999999861
 31
0.0
  0
LINE
  5
87
  8
DATA
  6
CONTINUOUS
 62
     7
 10
-205.35000000001119
 20
153.9999999999861
 30
0.0
 11
-205.45000000001119
 21
157.9999999999861
 31
0.0
  0
LINE
  5
88
  8
DATA
  6
CONTINUOUS
 62
     7
 10
-195.6500000000112
 20
153.9999999999861
 30
0.0
 11
-195.55000000001121
 21
157.9999999999861
 31
0.0
  0
LINE
  5
89
  8
DATA
  6
CONTINUOUS
 62
     7
 10
-205.45000000001119
 20
157.9999999999861
 30
0.0
 11
-206.60000000001119
 21
170.92999999998611
 31
0.0
  0
LINE
  5
8A
  8
DATA
  6
CONTINUOUS
 62
     7
 10
-195.55000000001121
 20
157.9999999999861
 30
0.0
 11
-194.4000000000112
 21
170.92999999998611
 31
0.0
  0
LINE
  5
8B
  8
DATA
  6
CONTINUOUS
 62
     7
 10
-206.91428571429691
 20
173.1299999999861
 30
0.0
 11
-194.08571428572549
 21
173.1299999999861
 31
0.0
  0
ARC
  5
8C
  8
DATA
  6
CONTINUOUS
 62
     7
 10
102.4296762589853
 20
-349.57884892087759
 30
0.0
 40
313.39499425098683
 50
169.60756357651911
 51
174.671651491348
  0
ARC
  5
8D
  8
DATA
  6
CONTINUOUS
 62
     7
 10
-240.2500000000118
 20
-286.7321187101943
 30
0.0
 40
35.000000000000668
 50
349.60756357651923
 51
0.0
  0
ARC
  5
8E
  8
DATA
  6
CONTINUOUS
 62
     7
 10
-120.00000000000951
 20
-328.83366693284972
 30
0.0
 40
90.000000000001663
 50
175.38460768178669
 51
180.0
  0
LINE
  5
8F
  8
DATA
  6
CONTINUOUS
 62
     7
 10
-209.70815675847811
 20
-321.59166368800447
 30
0.0
 11
-209.61109863017339
 21
-320.47597572682008
 31
0.0
  0
LINE
  5
90
  8
DATA
  6
CONTINUOUS
 62
     7
 10
-191.0000000000112
 20
-390.00000000001381
 30
0.0
 11
-191.0000000000112
 21
-328.83366693284972
 31
0.0
  0
ARC
  5
91
  8
DATA
  6
CONTINUOUS
 62
     7
 10
-503.42967625900741
 20
-349.57884892087759
 30
0.0
 40
313.3949942509866
 50
5.3283485086520459
 51
10.39243642348095
  0
ARC
  5
92
  8
DATA
  6
CONTINUOUS
 62
     7
 10
-160.7500000000104
 20
-286.7321187101943
 30
0.0
 40
35.000000000000732
 50
180.0
 51
190.3924364234806
  0
ARC
  5
93
  8
DATA
  6
CONTINUOUS
 62
     7
 10
-281.00000000001239
 20
-328.83366693284972
 30
0.0
 40
90.000000000001293
 50
0.0
 51
4.6153923182133667
  0
LINE
  5
94
  8
DATA
  6
CONTINUOUS
 62
     7
 10
-191.2918432415444
 20
-321.59166368800447
 30
0.0
 11
-191.38890136984901
 21
-320.47597572682008
 31
0.0
  0
POLYLINE
  5
95
  8
DATA
  6
CONTINUOUS
 62
     7
 66
     1
 10
0.0
 20
0.0
 30
0.0
 70
     1
  0
VERTEX
  5
496
  8
DATA
  6
CONTINUOUS
 62
     7
 10
-205.2500000000112
 20
138.79999999998611
 30
0.0
  0
VERTEX
  5
497
  8
DATA
  6
CONTINUOUS
 62
     7
 10
-195.75000000001111
 20
138.79999999998611
 30
0.0
  0
VERTEX
  5
498
  8
DATA
  6
CONTINUOUS
 62
     7
 10
-195.75000000001111
 20
134.9999999999861
 30
0.0
  0
VERTEX
  5
499
  8
DATA
  6
CONTINUOUS
 62
     7
 10
-205.2500000000112
 20
134.9999999999861
 30
0.0
  0
SEQEND
  5
49A
  8
DATA
  6
CONTINUOUS
 62
     7
  0
POLYLINE
  5
9C
  8
DATA
  6
CONTINUOUS
 62
     7
 66
     1
 10
0.0
 20
0.0
 30
0.0
 70
     1
  0
VERTEX
  5
49B
  8
DATA
  6
CONTINUOUS
 62
     7
 10
-205.2500000000112
 20
143.69999999998609
 30
0.0
  0
VERTEX
  5
49C
  8
DATA
  6
CONTINUOUS
 62
     7
 10
-195.75000000001111
 20
143.69999999998609
 30
0.0
  0
VERTEX
  5
49D
  8
DATA
  6
CONTINUOUS
 62
     7
 10
-195.75000000001111
 20
139.89999999998611
 30
0.0
  0
VERTEX
  5
49E
  8
DATA
  6
CONTINUOUS
 62
     7
 10
-205.2500000000112
 20
139.89999999998611
 30
0.0
  0
SEQEND
  5
49F
  8
DATA
  6
CONTINUOUS
 62
     7
  0
LINE
  5
A3
  8
DATA
  6
CONTINUOUS
 62
     7
 10
-204.4500000000113
 20
138.79999999998611
 30
0.0
 11
-204.4500000000113
 21
139.89999999998611
 31
0.0
  0
LINE
  5
A4
  8
DATA
  6
CONTINUOUS
 62
     7
 10
-196.55000000001121
 20
138.79999999998611
 30
0.0
 11
-196.55000000001121
 21
139.89999999998611
 31
0.0
  0
LINE
  5
A5
  8
DATA
  6
CONTINUOUS
 62
     7
 10
-204.4500000000113
 20
143.6999999999862
 30
0.0
 11
-204.4500000000113
 21
144.64169141339599
 31
0.0
  0
LINE
  5
A6
  8
DATA
  6
CONTINUOUS
 62
     7
 10
-196.55000000001121
 20
143.6999999999862
 30
0.0
 11
-196.55000000001121
 21
144.64169141339599
 31
0.0
  0
LINE
  5
A7
  8
DATA
  6
CONTINUOUS
 62
     7
 10
-202.51874999984611
 20
-205.5
 30
0.0
 11
-204.4500000000113
 21
-205.66178010472581
 31
0.0
  0
LINE
  5
A8
  8
DATA
  6
CONTINUOUS
 62
     7
 10
-196.55000000001121
 20
-206.50000000001381
 30
0.0
 11
-204.4500000000113
 21
-207.16178010472589
 31
0.0
  0
LINE
  5
A9
  8
DATA
  6
CONTINUOUS
 62
     7
 10
-204.4500000000113
 20
-207.16178010472589
 30
0.0
 11
-204.4500000000113
 21
-205.66178010472581
 31
0.0
  0
LINE
  5
AA
  8
DATA
  6
CONTINUOUS
 62
     7
 10
-196.55000000001121
 20
-206.50000000001381
 30
0.0
 11
-196.55000000001121
 21
-205.5
 31
0.0
  0
LINE
  5
AB
  8
DATA
  6
CONTINUOUS
 62
     7
 10
-196.55000000001121
 20
-207.00000000001381
 30
0.0
 11
-204.4500000000113
 21
-207.66178010472581
 31
0.0
  0
LINE
  5
AC
  8
DATA
  6
CONTINUOUS
 62
     7
 10
-196.55000000001121
 20
-208.50000000001381
 30
0.0
 11
-204.4500000000113
 21
-209.16178010472589
 31
0.0
  0
LINE
  5
AD
  8
DATA
  6
CONTINUOUS
 62
     7
 10
-204.4500000000113
 20
-209.16178010472589
 30
0.0
 11
-204.4500000000113
 21
-207.66178010472581
 31
0.0
  0
LINE
  5
AE
  8
DATA
  6
CONTINUOUS
 62
     7
 10
-196.55000000001121
 20
-208.50000000001381
 30
0.0
 11
-196.55000000001121
 21
-207.00000000001381
 31
0.0
  0
LINE
  5
AF
  8
DATA
  6
CONTINUOUS
 62
     7
 10
-204.2000000000113
 20
-207.64083769634891
 30
0.0
 11
-204.2000000000113
 21
-207.14083769634891
 31
0.0
  0
LINE
  5
B0
  8
DATA
  6
CONTINUOUS
 62
     7
 10
-204.2000000000113
 20
-205.64083769634891
 30
0.0
 11
-204.2000000000113
 21
-205.5
 31
0.0
  0
LINE
  5
B1
  8
DATA
  6
CONTINUOUS
 62
     7
 10
-196.80000000001121
 20
-207.02094240839079
 30
0.0
 11
-196.80000000001121
 21
-206.52094240839079
 31
0.0
  0
LINE
  5
B2
  8
DATA
  6
CONTINUOUS
 62
     7
 10
-196.55000000001121
 20
-209.00000000001381
 30
0.0
 11
-204.4500000000113
 21
-209.66178010472581
 31
0.0
  0
LINE
  5
B3
  8
DATA
  6
CONTINUOUS
 62
     7
 10
-196.55000000001121
 20
-210.50000000001381
 30
0.0
 11
-204.4500000000113
 21
-211.16178010472589
 31
0.0
  0
LINE
  5
B4
  8
DATA
  6
CONTINUOUS
 62
     7
 10
-204.4500000000113
 20
-211.16178010472589
 30
0.0
 11
-204.4500000000113
 21
-209.66178010472581
 31
0.0
  0
LINE
  5
B5
  8
DATA
  6
CONTINUOUS
 62
     7
 10
-196.55000000001121
 20
-210.50000000001381
 30
0.0
 11
-196.55000000001121
 21
-209.00000000001381
 31
0.0
  0
LINE
  5
B6
  8
DATA
  6
CONTINUOUS
 62
     7
 10
-204.2000000000113
 20
-209.64083769634891
 30
0.0
 11
-204.2000000000113
 21
-209.14083769634891
 31
0.0
  0
LINE
  5
B7
  8
DATA
  6
CONTINUOUS
 62
     7
 10
-196.55000000001121
 20
-211.00000000001381
 30
0.0
 11
-204.4500000000113
 21
-211.66178010472581
 31
0.0
  0
LINE
  5
B8
  8
DATA
  6
CONTINUOUS
 62
     7
 10
-196.55000000001121
 20
-212.50000000001381
 30
0.0
 11
-204.4500000000113
 21
-213.16178010472581
 31
0.0
  0
LINE
  5
B9
  8
DATA
  6
CONTINUOUS
 62
     7
 10
-204.4500000000113
 20
-213.16178010472581
 30
0.0
 11
-204.4500000000113
 21
-211.66178010472581
 31
0.0
  0
LINE
  5
BA
  8
DATA
  6
CONTINUOUS
 62
     7
 10
-196.55000000001121
 20
-212.50000000001381
 30
0.0
 11
-196.55000000001121
 21
-211.00000000001381
 31
0.0
  0
LINE
  5
BB
  8
DATA
  6
CONTINUOUS
 62
     7
 10
-204.2000000000113
 20
-211.64083769634891
 30
0.0
 11
-204.2000000000113
 21
-211.14083769634891
 31
0.0
  0
LINE
  5
BC
  8
DATA
  6
CONTINUOUS
 62
     7
 10
-196.55000000001121
 20
-213.00000000001381
 30
0.0
 11
-204.4500000000113
 21
-213.66178010472581
 31
0.0
  0
LINE
  5
BD
  8
DATA
  6
CONTINUOUS
 62
     7
 10
-196.55000000001121
 20
-214.5000000000139
 30
0.0
 11
-204.4500000000113
 21
-215.16178010472581
 31
0.0
  0
LINE
  5
BE
  8
DATA
  6
CONTINUOUS
 62
     7
 10
-204.4500000000113
 20
-215.16178010472581
 30
0.0
 11
-204.4500000000113
 21
-213.66178010472581
 31
0.0
  0
LINE
  5
BF
  8
DATA
  6
CONTINUOUS
 62
     7
 10
-196.55000000001121
 20
-214.5000000000139
 30
0.0
 11
-196.55000000001121
 21
-213.00000000001381
 31
0.0
  0
LINE
  5
C0
  8
DATA
  6
CONTINUOUS
 62
     7
 10
-204.2000000000113
 20
-213.64083769634891
 30
0.0
 11
-204.2000000000113
 21
-213.14083769634891
 31
0.0
  0
LINE
  5
C1
  8
DATA
  6
CONTINUOUS
 62
     7
 10
-196.55000000001121
 20
-215.00000000001381
 30
0.0
 11
-204.4500000000113
 21
-215.66178010472581
 31
0.0
  0
LINE
  5
C2
  8
DATA
  6
CONTINUOUS
 62
     7
 10
-196.55000000001121
 20
-216.5000000000139
 30
0.0
 11
-204.4500000000113
 21
-217.16178010472581
 31
0.0
  0
LINE
  5
C3
  8
DATA
  6
CONTINUOUS
 62
     7
 10
-204.4500000000113
 20
-217.16178010472581
 30
0.0
 11
-204.4500000000113
 21
-215.66178010472581
 31
0.0
  0
LINE
  5
C4
  8
DATA
  6
CONTINUOUS
 62
     7
 10
-196.55000000001121
 20
-216.5000000000139
 30
0.0
 11
-196.55000000001121
 21
-215.00000000001381
 31
0.0
  0
LINE
  5
C5
  8
DATA
  6
CONTINUOUS
 62
     7
 10
-204.2000000000113
 20
-215.64083769634891
 30
0.0
 11
-204.2000000000113
 21
-215.14083769634891
 31
0.0
  0
LINE
  5
C6
  8
DATA
  6
CONTINUOUS
 62
     7
 10
-196.55000000001121
 20
-217.00000000001381
 30
0.0
 11
-204.4500000000113
 21
-217.66178010472581
 31
0.0
  0
LINE
  5
C7
  8
DATA
  6
CONTINUOUS
 62
     7
 10
-196.55000000001121
 20
-218.5000000000139
 30
0.0
 11
-204.4500000000113
 21
-219.16178010472581
 31
0.0
  0
LINE
  5
C8
  8
DATA
  6
CONTINUOUS
 62
     7
 10
-204.4500000000113
 20
-219.16178010472581
 30
0.0
 11
-204.4500000000113
 21
-217.66178010472581
 31
0.0
  0
LINE
  5
C9
  8
DATA
  6
CONTINUOUS
 62
     7
 10
-196.55000000001121
 20
-218.5000000000139
 30
0.0
 11
-196.55000000001121
 21
-217.00000000001381
 31
0.0
  0
LINE
  5
CA
  8
DATA
  6
CONTINUOUS
 62
     7
 10
-204.2000000000113
 20
-217.64083769634891
 30
0.0
 11
-204.2000000000113
 21
-217.14083769634891
 31
0.0
  0
LINE
  5
CB
  8
DATA
  6
CONTINUOUS
 62
     7
 10
-196.55000000001121
 20
-219.00000000001381
 30
0.0
 11
-204.4500000000113
 21
-219.66178010472589
 31
0.0
  0
LINE
  5
CC
  8
DATA
  6
CONTINUOUS
 62
     7
 10
-196.55000000001121
 20
-220.5000000000139
 30
0.0
 11
-204.4500000000113
 21
-221.16178010472581
 31
0.0
  0
LINE
  5
CD
  8
DATA
  6
CONTINUOUS
 62
     7
 10
-204.4500000000113
 20
-221.16178010472581
 30
0.0
 11
-204.4500000000113
 21
-219.66178010472589
 31
0.0
  0
LINE
  5
CE
  8
DATA
  6
CONTINUOUS
 62
     7
 10
-196.55000000001121
 20
-220.5000000000139
 30
0.0
 11
-196.55000000001121
 21
-219.00000000001381
 31
0.0
  0
LINE
  5
CF
  8
DATA
  6
CONTINUOUS
 62
     7
 10
-204.2000000000113
 20
-219.64083769634891
 30
0.0
 11
-204.2000000000113
 21
-219.14083769634891
 31
0.0
  0
LINE
  5
D0
  8
DATA
  6
CONTINUOUS
 62
     7
 10
-196.55000000001121
 20
-221.00000000001381
 30
0.0
 11
-204.4500000000113
 21
-221.66178010472589
 31
0.0
  0
LINE
  5
D1
  8
DATA
  6
CONTINUOUS
 62
     7
 10
-196.55000000001121
 20
-222.5000000000139
 30
0.0
 11
-204.4500000000113
 21
-223.16178010472581
 31
0.0
  0
LINE
  5
D2
  8
DATA
  6
CONTINUOUS
 62
     7
 10
-204.4500000000113
 20
-223.16178010472581
 30
0.0
 11
-204.4500000000113
 21
-221.66178010472589
 31
0.0
  0
LINE
  5
D3
  8
DATA
  6
CONTINUOUS
 62
     7
 10
-196.55000000001121
 20
-222.5000000000139
 30
0.0
 11
-196.55000000001121
 21
-221.00000000001381
 31
0.0
  0
LINE
  5
D4
  8
DATA
  6
CONTINUOUS
 62
     7
 10
-204.2000000000113
 20
-221.64083769634891
 30
0.0
 11
-204.2000000000113
 21
-221.14083769634891
 31
0.0
  0
LINE
  5
D5
  8
DATA
  6
CONTINUOUS
 62
     7
 10
-196.55000000001121
 20
-223.00000000001381
 30
0.0
 11
-204.4500000000113
 21
-223.66178010472589
 31
0.0
  0
LINE
  5
D6
  8
DATA
  6
CONTINUOUS
 62
     7
 10
-196.55000000001121
 20
-224.5000000000139
 30
0.0
 11
-204.4500000000113
 21
-225.16178010472581
 31
0.0
  0
LINE
  5
D7
  8
DATA
  6
CONTINUOUS
 62
     7
 10
-204.4500000000113
 20
-225.16178010472581
 30
0.0
 11
-204.4500000000113
 21
-223.66178010472589
 31
0.0
  0
LINE
  5
D8
  8
DATA
  6
CONTINUOUS
 62
     7
 10
-196.55000000001121
 20
-224.5000000000139
 30
0.0
 11
-196.55000000001121
 21
-223.00000000001381
 31
0.0
  0
LINE
  5
D9
  8
DATA
  6
CONTINUOUS
 62
     7
 10
-204.2000000000113
 20
-223.64083769634891
 30
0.0
 11
-204.2000000000113
 21
-223.14083769634891
 31
0.0
  0
LINE
  5
DA
  8
DATA
  6
CONTINUOUS
 62
     7
 10
-196.55000000001121
 20
-225.00000000001381
 30
0.0
 11
-204.4500000000113
 21
-225.66178010472589
 31
0.0
  0
LINE
  5
DB
  8
DATA
  6
CONTINUOUS
 62
     7
 10
-196.55000000001121
 20
-226.5000000000139
 30
0.0
 11
-204.4500000000113
 21
-227.16178010472581
 31
0.0
  0
LINE
  5
DC
  8
DATA
  6
CONTINUOUS
 62
     7
 10
-204.4500000000113
 20
-227.16178010472581
 30
0.0
 11
-204.4500000000113
 21
-225.66178010472589
 31
0.0
  0
LINE
  5
DD
  8
DATA
  6
CONTINUOUS
 62
     7
 10
-196.55000000001121
 20
-226.5000000000139
 30
0.0
 11
-196.55000000001121
 21
-225.00000000001381
 31
0.0
  0
LINE
  5
DE
  8
DATA
  6
CONTINUOUS
 62
     7
 10
-204.2000000000113
 20
-225.64083769634891
 30
0.0
 11
-204.2000000000113
 21
-225.14083769634891
 31
0.0
  0
LINE
  5
DF
  8
DATA
  6
CONTINUOUS
 62
     7
 10
-196.55000000001121
 20
-227.0000000000139
 30
0.0
 11
-204.4500000000113
 21
-227.66178010472581
 31
0.0
  0
LINE
  5
E0
  8
DATA
  6
CONTINUOUS
 62
     7
 10
-196.55000000001121
 20
-228.50000000001381
 30
0.0
 11
-204.4500000000113
 21
-229.16178010472581
 31
0.0
  0
LINE
  5
E1
  8
DATA
  6
CONTINUOUS
 62
     7
 10
-204.4500000000113
 20
-229.16178010472581
 30
0.0
 11
-204.4500000000113
 21
-227.66178010472581
 31
0.0
  0
LINE
  5
E2
  8
DATA
  6
CONTINUOUS
 62
     7
 10
-196.55000000001121
 20
-228.50000000001381
 30
0.0
 11
-196.55000000001121
 21
-227.0000000000139
 31
0.0
  0
LINE
  5
E3
  8
DATA
  6
CONTINUOUS
 62
     7
 10
-204.2000000000113
 20
-227.64083769634891
 30
0.0
 11
-204.2000000000113
 21
-227.14083769634891
 31
0.0
  0
LINE
  5
E4
  8
DATA
  6
CONTINUOUS
 62
     7
 10
-196.55000000001121
 20
-229.0000000000139
 30
0.0
 11
-204.4500000000113
 21
-229.66178010472581
 31
0.0
  0
LINE
  5
E5
  8
DATA
  6
CONTINUOUS
 62
     7
 10
-196.55000000001121
 20
-230.50000000001381
 30
0.0
 11
-204.4500000000113
 21
-231.16178010472581
 31
0.0
  0
LINE
  5
E6
  8
DATA
  6
CONTINUOUS
 62
     7
 10
-204.4500000000113
 20
-231.16178010472581
 30
0.0
 11
-204.4500000000113
 21
-229.66178010472581
 31
0.0
  0
LINE
  5
E7
  8
DATA
  6
CONTINUOUS
 62
     7
 10
-196.55000000001121
 20
-230.50000000001381
 30
0.0
 11
-196.55000000001121
 21
-229.0000000000139
 31
0.0
  0
LINE
  5
E8
  8
DATA
  6
CONTINUOUS
 62
     7
 10
-204.2000000000113
 20
-229.64083769634891
 30
0.0
 11
-204.2000000000113
 21
-229.14083769634891
 31
0.0
  0
LINE
  5
E9
  8
DATA
  6
CONTINUOUS
 62
     7
 10
-196.55000000001121
 20
-231.0000000000139
 30
0.0
 11
-204.4500000000113
 21
-231.66178010472581
 31
0.0
  0
LINE
  5
EA
  8
DATA
  6
CONTINUOUS
 62
     7
 10
-196.55000000001121
 20
-232.50000000001381
 30
0.0
 11
-204.4500000000113
 21
-233.16178010472581
 31
0.0
  0
LINE
  5
EB
  8
DATA
  6
CONTINUOUS
 62
     7
 10
-204.4500000000113
 20
-233.16178010472581
 30
0.0
 11
-204.4500000000113
 21
-231.66178010472581
 31
0.0
  0
LINE
  5
EC
  8
DATA
  6
CONTINUOUS
 62
     7
 10
-196.55000000001121
 20
-232.50000000001381
 30
0.0
 11
-196.55000000001121
 21
-231.0000000000139
 31
0.0
  0
LINE
  5
ED
  8
DATA
  6
CONTINUOUS
 62
     7
 10
-204.2000000000113
 20
-231.64083769634891
 30
0.0
 11
-204.2000000000113
 21
-231.14083769634891
 31
0.0
  0
LINE
  5
EE
  8
DATA
  6
CONTINUOUS
 62
     7
 10
-196.55000000001121
 20
-233.0000000000139
 30
0.0
 11
-204.4500000000113
 21
-233.66178010472581
 31
0.0
  0
LINE
  5
EF
  8
DATA
  6
CONTINUOUS
 62
     7
 10
-196.55000000001121
 20
-234.50000000001381
 30
0.0
 11
-204.4500000000113
 21
-235.16178010472581
 31
0.0
  0
LINE
  5
F0
  8
DATA
  6
CONTINUOUS
 62
     7
 10
-204.4500000000113
 20
-235.16178010472581
 30
0.0
 11
-204.4500000000113
 21
-233.66178010472581
 31
0.0
  0
LINE
  5
F1
  8
DATA
  6
CONTINUOUS
 62
     7
 10
-196.55000000001121
 20
-234.50000000001381
 30
0.0
 11
-196.55000000001121
 21
-233.0000000000139
 31
0.0
  0
LINE
  5
F2
  8
DATA
  6
CONTINUOUS
 62
     7
 10
-204.2000000000113
 20
-233.64083769634891
 30
0.0
 11
-204.2000000000113
 21
-233.14083769634891
 31
0.0
  0
LINE
  5
F3
  8
DATA
  6
CONTINUOUS
 62
     7
 10
-196.55000000001121
 20
-235.0000000000139
 30
0.0
 11
-204.4500000000113
 21
-235.66178010472581
 31
0.0
  0
LINE
  5
F4
  8
DATA
  6
CONTINUOUS
 62
     7
 10
-196.55000000001121
 20
-236.50000000001381
 30
0.0
 11
-204.4500000000113
 21
-237.16178010472581
 31
0.0
  0
LINE
  5
F5
  8
DATA
  6
CONTINUOUS
 62
     7
 10
-204.4500000000113
 20
-237.16178010472581
 30
0.0
 11
-204.4500000000113
 21
-235.66178010472581
 31
0.0
  0
LINE
  5
F6
  8
DATA
  6
CONTINUOUS
 62
     7
 10
-196.55000000001121
 20
-236.50000000001381
 30
0.0
 11
-196.55000000001121
 21
-235.0000000000139
 31
0.0
  0
LINE
  5
F7
  8
DATA
  6
CONTINUOUS
 62
     7
 10
-204.2000000000113
 20
-235.64083769634891
 30
0.0
 11
-204.2000000000113
 21
-235.14083769634891
 31
0.0
  0
LINE
  5
F8
  8
DATA
  6
CONTINUOUS
 62
     7
 10
-196.55000000001121
 20
-237.0000000000139
 30
0.0
 11
-204.4500000000113
 21
-237.66178010472581
 31
0.0
  0
LINE
  5
F9
  8
DATA
  6
CONTINUOUS
 62
     7
 10
-196.55000000001121
 20
-238.50000000001381
 30
0.0
 11
-204.4500000000113
 21
-239.16178010472581
 31
0.0
  0
LINE
  5
FA
  8
DATA
  6
CONTINUOUS
 62
     7
 10
-204.4500000000113
 20
-239.16178010472581
 30
0.0
 11
-204.4500000000113
 21
-237.66178010472581
 31
0.0
  0
LINE
  5
FB
  8
DATA
  6
CONTINUOUS
 62
     7
 10
-196.55000000001121
 20
-238.50000000001381
 30
0.0
 11
-196.55000000001121
 21
-237.0000000000139
 31
0.0
  0
LINE
  5
FC
  8
DATA
  6
CONTINUOUS
 62
     7
 10
-204.2000000000113
 20
-237.64083769634891
 30
0.0
 11
-204.2000000000113
 21
-237.14083769634891
 31
0.0
  0
LINE
  5
FD
  8
DATA
  6
CONTINUOUS
 62
     7
 10
-196.55000000001121
 20
-239.0000000000139
 30
0.0
 11
-204.4500000000113
 21
-239.66178010472581
 31
0.0
  0
LINE
  5
FE
  8
DATA
  6
CONTINUOUS
 62
     7
 10
-196.55000000001121
 20
-240.50000000001381
 30
0.0
 11
-204.4500000000113
 21
-241.16178010472581
 31
0.0
  0
LINE
  5
FF
  8
DATA
  6
CONTINUOUS
 62
     7
 10
-204.4500000000113
 20
-241.16178010472581
 30
0.0
 11
-204.4500000000113
 21
-239.66178010472581
 31
0.0
  0
LINE
  5
100
  8
DATA
  6
CONTINUOUS
 62
     7
 10
-196.55000000001121
 20
-240.50000000001381
 30
0.0
 11
-196.55000000001121
 21
-239.0000000000139
 31
0.0
  0
LINE
  5
101
  8
DATA
  6
CONTINUOUS
 62
     7
 10
-204.2000000000113
 20
-239.64083769634891
 30
0.0
 11
-204.2000000000113
 21
-239.14083769634891
 31
0.0
  0
LINE
  5
102
  8
DATA
  6
CONTINUOUS
 62
     7
 10
-196.55000000001121
 20
-241.00000000001381
 30
0.0
 11
-204.4500000000113
 21
-241.66178010472581
 31
0.0
  0
LINE
  5
103
  8
DATA
  6
CONTINUOUS
 62
     7
 10
-196.55000000001121
 20
-242.50000000001381
 30
0.0
 11
-204.4500000000113
 21
-243.16178010472581
 31
0.0
  0
LINE
  5
104
  8
DATA
  6
CONTINUOUS
 62
     7
 10
-204.4500000000113
 20
-243.16178010472581
 30
0.0
 11
-204.4500000000113
 21
-241.66178010472581
 31
0.0
  0
LINE
  5
105
  8
DATA
  6
CONTINUOUS
 62
     7
 10
-196.55000000001121
 20
-242.50000000001381
 30
0.0
 11
-196.55000000001121
 21
-241.00000000001381
 31
0.0
  0
LINE
  5
106
  8
DATA
  6
CONTINUOUS
 62
     7
 10
-204.2000000000113
 20
-241.64083769634891
 30
0.0
 11
-204.2000000000113
 21
-241.14083769634891
 31
0.0
  0
LINE
  5
107
  8
DATA
  6
CONTINUOUS
 62
     7
 10
-196.55000000001121
 20
-243.00000000001381
 30
0.0
 11
-204.4500000000113
 21
-243.66178010472581
 31
0.0
  0
LINE
  5
108
  8
DATA
  6
CONTINUOUS
 62
     7
 10
-196.55000000001121
 20
-244.50000000001381
 30
0.0
 11
-204.4500000000113
 21
-245.16178010472581
 31
0.0
  0
LINE
  5
109
  8
DATA
  6
CONTINUOUS
 62
     7
 10
-204.4500000000113
 20
-245.16178010472581
 30
0.0
 11
-204.4500000000113
 21
-243.66178010472581
 31
0.0
  0
LINE
  5
10A
  8
DATA
  6
CONTINUOUS
 62
     7
 10
-196.55000000001121
 20
-244.50000000001381
 30
0.0
 11
-196.55000000001121
 21
-243.00000000001381
 31
0.0
  0
LINE
  5
10B
  8
DATA
  6
CONTINUOUS
 62
     7
 10
-204.2000000000113
 20
-243.64083769634891
 30
0.0
 11
-204.2000000000113
 21
-243.14083769634891
 31
0.0
  0
LINE
  5
10C
  8
DATA
  6
CONTINUOUS
 62
     7
 10
-196.55000000001121
 20
-245.00000000001381
 30
0.0
 11
-204.4500000000113
 21
-245.66178010472581
 31
0.0
  0
LINE
  5
10D
  8
DATA
  6
CONTINUOUS
 62
     7
 10
-196.55000000001121
 20
-246.50000000001381
 30
0.0
 11
-204.4500000000113
 21
-247.16178010472581
 31
0.0
  0
LINE
  5
10E
  8
DATA
  6
CONTINUOUS
 62
     7
 10
-204.4500000000113
 20
-247.16178010472581
 30
0.0
 11
-204.4500000000113
 21
-245.66178010472581
 31
0.0
  0
LINE
  5
10F
  8
DATA
  6
CONTINUOUS
 62
     7
 10
-196.55000000001121
 20
-246.50000000001381
 30
0.0
 11
-196.55000000001121
 21
-245.00000000001381
 31
0.0
  0
LINE
  5
110
  8
DATA
  6
CONTINUOUS
 62
     7
 10
-204.2000000000113
 20
-245.64083769634891
 30
0.0
 11
-204.2000000000113
 21
-245.14083769634891
 31
0.0
  0
LINE
  5
111
  8
DATA
  6
CONTINUOUS
 62
     7
 10
-196.55000000001121
 20
-247.00000000001381
 30
0.0
 11
-204.4500000000113
 21
-247.66178010472581
 31
0.0
  0
LINE
  5
112
  8
DATA
  6
CONTINUOUS
 62
     7
 10
-196.55000000001121
 20
-248.50000000001381
 30
0.0
 11
-204.4500000000113
 21
-249.16178010472581
 31
0.0
  0
LINE
  5
113
  8
DATA
  6
CONTINUOUS
 62
     7
 10
-204.4500000000113
 20
-249.16178010472581
 30
0.0
 11
-204.4500000000113
 21
-247.66178010472581
 31
0.0
  0
LINE
  5
114
  8
DATA
  6
CONTINUOUS
 62
     7
 10
-196.55000000001121
 20
-248.50000000001381
 30
0.0
 11
-196.55000000001121
 21
-247.00000000001381
 31
0.0
  0
LINE
  5
115
  8
DATA
  6
CONTINUOUS
 62
     7
 10
-204.2000000000113
 20
-247.64083769634891
 30
0.0
 11
-204.2000000000113
 21
-247.14083769634891
 31
0.0
  0
LINE
  5
116
  8
DATA
  6
CONTINUOUS
 62
     7
 10
-196.55000000001121
 20
-249.00000000001381
 30
0.0
 11
-204.4500000000113
 21
-249.66178010472581
 31
0.0
  0
LINE
  5
117
  8
DATA
  6
CONTINUOUS
 62
     7
 10
-196.55000000001121
 20
-250.50000000001381
 30
0.0
 11
-204.4500000000113
 21
-251.16178010472581
 31
0.0
  0
LINE
  5
118
  8
DATA
  6
CONTINUOUS
 62
     7
 10
-204.4500000000113
 20
-251.16178010472581
 30
0.0
 11
-204.4500000000113
 21
-249.66178010472581
 31
0.0
  0
LINE
  5
119
  8
DATA
  6
CONTINUOUS
 62
     7
 10
-196.55000000001121
 20
-250.50000000001381
 30
0.0
 11
-196.55000000001121
 21
-249.00000000001381
 31
0.0
  0
LINE
  5
11A
  8
DATA
  6
CONTINUOUS
 62
     7
 10
-204.2000000000113
 20
-249.64083769634891
 30
0.0
 11
-204.2000000000113
 21
-249.14083769634891
 31
0.0
  0
LINE
  5
11B
  8
DATA
  6
CONTINUOUS
 62
     7
 10
-196.55000000001121
 20
-251.00000000001381
 30
0.0
 11
-204.4500000000113
 21
-251.66178010472581
 31
0.0
  0
LINE
  5
11C
  8
DATA
  6
CONTINUOUS
 62
     7
 10
-196.55000000001121
 20
-252.50000000001381
 30
0.0
 11
-204.4500000000113
 21
-253.16178010472581
 31
0.0
  0
LINE
  5
11D
  8
DATA
  6
CONTINUOUS
 62
     7
 10
-204.4500000000113
 20
-253.16178010472581
 30
0.0
 11
-204.4500000000113
 21
-251.66178010472581
 31
0.0
  0
LINE
  5
11E
  8
DATA
  6
CONTINUOUS
 62
     7
 10
-196.55000000001121
 20
-252.50000000001381
 30
0.0
 11
-196.55000000001121
 21
-251.00000000001381
 31
0.0
  0
LINE
  5
11F
  8
DATA
  6
CONTINUOUS
 62
     7
 10
-204.2000000000113
 20
-251.64083769634891
 30
0.0
 11
-204.2000000000113
 21
-251.14083769634891
 31
0.0
  0
LINE
  5
120
  8
DATA
  6
CONTINUOUS
 62
     7
 10
-196.55000000001121
 20
-253.00000000001381
 30
0.0
 11
-204.4500000000113
 21
-253.66178010472581
 31
0.0
  0
LINE
  5
121
  8
DATA
  6
CONTINUOUS
 62
     7
 10
-196.55000000001121
 20
-254.50000000001381
 30
0.0
 11
-204.4500000000113
 21
-255.16178010472581
 31
0.0
  0
LINE
  5
122
  8
DATA
  6
CONTINUOUS
 62
     7
 10
-204.4500000000113
 20
-255.16178010472581
 30
0.0
 11
-204.4500000000113
 21
-253.66178010472581
 31
0.0
  0
LINE
  5
123
  8
DATA
  6
CONTINUOUS
 62
     7
 10
-196.55000000001121
 20
-254.50000000001381
 30
0.0
 11
-196.55000000001121
 21
-253.00000000001381
 31
0.0
  0
LINE
  5
124
  8
DATA
  6
CONTINUOUS
 62
     7
 10
-204.2000000000113
 20
-253.64083769634891
 30
0.0
 11
-204.2000000000113
 21
-253.14083769634891
 31
0.0
  0
LINE
  5
125
  8
DATA
  6
CONTINUOUS
 62
     7
 10
-196.55000000001121
 20
-255.00000000001381
 30
0.0
 11
-204.4500000000113
 21
-255.66178010472581
 31
0.0
  0
LINE
  5
126
  8
DATA
  6
CONTINUOUS
 62
     7
 10
-196.55000000001121
 20
-256.50000000001393
 30
0.0
 11
-204.4500000000113
 21
-257.16178010472589
 31
0.0
  0
LINE
  5
127
  8
DATA
  6
CONTINUOUS
 62
     7
 10
-204.4500000000113
 20
-257.16178010472589
 30
0.0
 11
-204.4500000000113
 21
-255.66178010472581
 31
0.0
  0
LINE
  5
128
  8
DATA
  6
CONTINUOUS
 62
     7
 10
-196.55000000001121
 20
-256.50000000001393
 30
0.0
 11
-196.55000000001121
 21
-255.00000000001381
 31
0.0
  0
LINE
  5
129
  8
DATA
  6
CONTINUOUS
 62
     7
 10
-204.2000000000113
 20
-255.64083769634891
 30
0.0
 11
-204.2000000000113
 21
-255.14083769634891
 31
0.0
  0
LINE
  5
12A
  8
DATA
  6
CONTINUOUS
 62
     7
 10
-196.55000000001121
 20
-257.00000000001393
 30
0.0
 11
-204.4500000000113
 21
-257.66178010472578
 31
0.0
  0
LINE
  5
12B
  8
DATA
  6
CONTINUOUS
 62
     7
 10
-196.55000000001121
 20
-258.50000000001393
 30
0.0
 11
-204.4500000000113
 21
-259.16178010472589
 31
0.0
  0
LINE
  5
12C
  8
DATA
  6
CONTINUOUS
 62
     7
 10
-204.4500000000113
 20
-259.16178010472589
 30
0.0
 11
-204.4500000000113
 21
-257.66178010472578
 31
0.0
  0
LINE
  5
12D
  8
DATA
  6
CONTINUOUS
 62
     7
 10
-196.55000000001121
 20
-258.50000000001393
 30
0.0
 11
-196.55000000001121
 21
-257.00000000001393
 31
0.0
  0
LINE
  5
12E
  8
DATA
  6
CONTINUOUS
 62
     7
 10
-204.2000000000113
 20
-257.64083769634902
 30
0.0
 11
-204.2000000000113
 21
-257.14083769634902
 31
0.0
  0
LINE
  5
12F
  8
DATA
  6
CONTINUOUS
 62
     7
 10
-196.55000000001121
 20
-259.00000000001393
 30
0.0
 11
-204.4500000000113
 21
-259.66178010472578
 31
0.0
  0
LINE
  5
130
  8
DATA
  6
CONTINUOUS
 62
     7
 10
-196.55000000001121
 20
-260.50000000001381
 30
0.0
 11
-204.4500000000113
 21
-261.16178010472589
 31
0.0
  0
LINE
  5
131
  8
DATA
  6
CONTINUOUS
 62
     7
 10
-204.4500000000113
 20
-261.16178010472589
 30
0.0
 11
-204.4500000000113
 21
-259.66178010472578
 31
0.0
  0
LINE
  5
132
  8
DATA
  6
CONTINUOUS
 62
     7
 10
-196.55000000001121
 20
-260.50000000001381
 30
0.0
 11
-196.55000000001121
 21
-259.00000000001393
 31
0.0
  0
LINE
  5
133
  8
DATA
  6
CONTINUOUS
 62
     7
 10
-204.2000000000113
 20
-259.64083769634902
 30
0.0
 11
-204.2000000000113
 21
-259.14083769634902
 31
0.0
  0
LINE
  5
134
  8
DATA
  6
CONTINUOUS
 62
     7
 10
-196.55000000001121
 20
-261.00000000001393
 30
0.0
 11
-204.4500000000113
 21
-261.66178010472578
 31
0.0
  0
LINE
  5
135
  8
DATA
  6
CONTINUOUS
 62
     7
 10
-196.55000000001121
 20
-262.50000000001381
 30
0.0
 11
-202.5187500000111
 21
-263.00000000001393
 31
0.0
  0
LINE
  5
136
  8
DATA
  6
CONTINUOUS
 62
     7
 10
-204.4500000000113
 20
-263.00000000001393
 30
0.0
 11
-204.4500000000113
 21
-261.66178010472578
 31
0.0
  0
LINE
  5
137
  8
DATA
  6
CONTINUOUS
 62
     7
 10
-196.55000000001121
 20
-262.50000000001381
 30
0.0
 11
-196.55000000001121
 21
-261.00000000001393
 31
0.0
  0
LINE
  5
138
  8
DATA
  6
CONTINUOUS
 62
     7
 10
-204.2000000000113
 20
-261.64083769634902
 30
0.0
 11
-204.2000000000113
 21
-261.14083769634902
 31
0.0
  0
LINE
  5
139
  8
DATA
  6
CONTINUOUS
 62
     7
 10
-196.80000000001121
 20
-213.02094240839079
 30
0.0
 11
-196.80000000001121
 21
-212.52094240839079
 31
0.0
  0
LINE
  5
13A
  8
DATA
  6
CONTINUOUS
 62
     7
 10
-196.80000000001121
 20
-215.02094240839079
 30
0.0
 11
-196.80000000001121
 21
-214.52094240839079
 31
0.0
  0
LINE
  5
13B
  8
DATA
  6
CONTINUOUS
 62
     7
 10
-196.80000000001121
 20
-217.02094240839079
 30
0.0
 11
-196.80000000001121
 21
-216.52094240839079
 31
0.0
  0
LINE
  5
13C
  8
DATA
  6
CONTINUOUS
 62
     7
 10
-196.80000000001121
 20
-219.02094240839079
 30
0.0
 11
-196.80000000001121
 21
-218.52094240839079
 31
0.0
  0
LINE
  5
13D
  8
DATA
  6
CONTINUOUS
 62
     7
 10
-196.80000000001121
 20
-221.02094240839079
 30
0.0
 11
-196.80000000001121
 21
-220.52094240839079
 31
0.0
  0
LINE
  5
13E
  8
DATA
  6
CONTINUOUS
 62
     7
 10
-196.80000000001121
 20
-223.02094240839079
 30
0.0
 11
-196.80000000001121
 21
-222.52094240839079
 31
0.0
  0
LINE
  5
13F
  8
DATA
  6
CONTINUOUS
 62
     7
 10
-196.80000000001121
 20
-225.02094240839079
 30
0.0
 11
-196.80000000001121
 21
-224.52094240839079
 31
0.0
  0
LINE
  5
140
  8
DATA
  6
CONTINUOUS
 62
     7
 10
-196.80000000001121
 20
-227.02094240839079
 30
0.0
 11
-196.80000000001121
 21
-226.52094240839079
 31
0.0
  0
LINE
  5
141
  8
DATA
  6
CONTINUOUS
 62
     7
 10
-196.80000000001121
 20
-229.02094240839079
 30
0.0
 11
-196.80000000001121
 21
-228.52094240839079
 31
0.0
  0
LINE
  5
142
  8
DATA
  6
CONTINUOUS
 62
     7
 10
-196.80000000001121
 20
-231.02094240839079
 30
0.0
 11
-196.80000000001121
 21
-230.52094240839079
 31
0.0
  0
LINE
  5
143
  8
DATA
  6
CONTINUOUS
 62
     7
 10
-196.80000000001121
 20
-233.02094240839079
 30
0.0
 11
-196.80000000001121
 21
-232.52094240839079
 31
0.0
  0
LINE
  5
144
  8
DATA
  6
CONTINUOUS
 62
     7
 10
-196.80000000001121
 20
-235.02094240839079
 30
0.0
 11
-196.80000000001121
 21
-234.52094240839079
 31
0.0
  0
LINE
  5
145
  8
DATA
  6
CONTINUOUS
 62
     7
 10
-196.80000000001121
 20
-237.02094240839079
 30
0.0
 11
-196.80000000001121
 21
-236.52094240839079
 31
0.0
  0
LINE
  5
146
  8
DATA
  6
CONTINUOUS
 62
     7
 10
-196.80000000001121
 20
-239.02094240839079
 30
0.0
 11
-196.80000000001121
 21
-238.52094240839079
 31
0.0
  0
LINE
  5
147
  8
DATA
  6
CONTINUOUS
 62
     7
 10
-196.80000000001121
 20
-241.02094240839079
 30
0.0
 11
-196.80000000001121
 21
-240.52094240839079
 31
0.0
  0
LINE
  5
148
  8
DATA
  6
CONTINUOUS
 62
     7
 10
-196.80000000001121
 20
-243.02094240839079
 30
0.0
 11
-196.80000000001121
 21
-242.52094240839079
 31
0.0
  0
LINE
  5
149
  8
DATA
  6
CONTINUOUS
 62
     7
 10
-196.80000000001121
 20
-245.02094240839079
 30
0.0
 11
-196.80000000001121
 21
-244.52094240839079
 31
0.0
  0
LINE
  5
14A
  8
DATA
  6
CONTINUOUS
 62
     7
 10
-196.80000000001121
 20
-247.02094240839079
 30
0.0
 11
-196.80000000001121
 21
-246.52094240839079
 31
0.0
  0
LINE
  5
14B
  8
DATA
  6
CONTINUOUS
 62
     7
 10
-196.80000000001121
 20
-249.02094240839079
 30
0.0
 11
-196.80000000001121
 21
-248.52094240839079
 31
0.0
  0
LINE
  5
14C
  8
DATA
  6
CONTINUOUS
 62
     7
 10
-196.80000000001121
 20
-251.02094240839079
 30
0.0
 11
-196.80000000001121
 21
-250.52094240839079
 31
0.0
  0
LINE
  5
14D
  8
DATA
  6
CONTINUOUS
 62
     7
 10
-196.80000000001121
 20
-253.02094240839079
 30
0.0
 11
-196.80000000001121
 21
-252.52094240839079
 31
0.0
  0
LINE
  5
14E
  8
DATA
  6
CONTINUOUS
 62
     7
 10
-196.80000000001121
 20
-255.02094240839079
 30
0.0
 11
-196.80000000001121
 21
-254.52094240839079
 31
0.0
  0
LINE
  5
14F
  8
DATA
  6
CONTINUOUS
 62
     7
 10
-196.80000000001121
 20
-257.02094240839091
 30
0.0
 11
-196.80000000001121
 21
-256.52094240839091
 31
0.0
  0
LINE
  5
150
  8
DATA
  6
CONTINUOUS
 62
     7
 10
-196.80000000001121
 20
-259.02094240839091
 30
0.0
 11
-196.80000000001121
 21
-258.52094240839091
 31
0.0
  0
LINE
  5
151
  8
DATA
  6
CONTINUOUS
 62
     7
 10
-196.80000000001121
 20
-261.02094240839091
 30
0.0
 11
-196.80000000001121
 21
-260.52094240839091
 31
0.0
  0
LINE
  5
152
  8
DATA
  6
CONTINUOUS
 62
     7
 10
-196.80000000001121
 20
-263.00000000001393
 30
0.0
 11
-196.80000000001121
 21
-262.52094240839091
 31
0.0
  0
LINE
  5
153
  8
DATA
  6
CONTINUOUS
 62
     7
 10
-205.2500000000112
 20
-271.7000000000138
 30
0.0
 11
-205.2500000000112
 21
-267.90000000001379
 31
0.0
  0
LINE
  5
154
  8
DATA
  6
CONTINUOUS
 62
     7
 10
-195.75000000001111
 20
-271.7000000000138
 30
0.0
 11
-205.2500000000112
 21
-271.7000000000138
 31
0.0
  0
LINE
  5
155
  8
DATA
  6
CONTINUOUS
 62
     7
 10
-195.75000000001111
 20
-267.90000000001379
 30
0.0
 11
-195.75000000001111
 21
-271.7000000000138
 31
0.0
  0
LINE
  5
156
  8
DATA
  6
CONTINUOUS
 62
     7
 10
-205.2500000000112
 20
-267.90000000001379
 30
0.0
 11
-195.75000000001111
 21
-267.90000000001379
 31
0.0
  0
LINE
  5
157
  8
DATA
  6
CONTINUOUS
 62
     7
 10
-205.2500000000112
 20
-266.80000000001382
 30
0.0
 11
-205.2500000000112
 21
-263.00000000001393
 31
0.0
  0
LINE
  5
158
  8
DATA
  6
CONTINUOUS
 62
     7
 10
-195.75000000001111
 20
-266.80000000001382
 30
0.0
 11
-205.2500000000112
 21
-266.80000000001382
 31
0.0
  0
LINE
  5
159
  8
DATA
  6
CONTINUOUS
 62
     7
 10
-195.75000000001111
 20
-263.00000000001393
 30
0.0
 11
-195.75000000001111
 21
-266.80000000001382
 31
0.0
  0
LINE
  5
15A
  8
DATA
  6
CONTINUOUS
 62
     7
 10
-205.2500000000112
 20
-263.00000000001393
 30
0.0
 11
-195.75000000001111
 21
-263.00000000001393
 31
0.0
  0
LINE
  5
15B
  8
DATA
  6
CONTINUOUS
 62
     7
 10
-204.4500000000113
 20
-267.90000000001379
 30
0.0
 11
-204.4500000000113
 21
-266.80000000001382
 31
0.0
  0
LINE
  5
15C
  8
DATA
  6
CONTINUOUS
 62
     7
 10
-196.55000000001121
 20
-267.90000000001379
 30
0.0
 11
-196.55000000001121
 21
-266.80000000001382
 31
0.0
  0
LINE
  5
15D
  8
DATA
  6
CONTINUOUS
 62
     7
 10
-204.4500000000113
 20
-272.80000000001382
 30
0.0
 11
-204.4500000000113
 21
-271.7000000000138
 31
0.0
  0
LINE
  5
15E
  8
DATA
  6
CONTINUOUS
 62
     7
 10
-196.55000000001121
 20
-272.80000000001382
 30
0.0
 11
-196.55000000001121
 21
-271.7000000000138
 31
0.0
  0
LINE
  5
15F
  8
DATA
  6
CONTINUOUS
 62
     7
 10
-205.2500000000112
 20
-272.80000000001382
 30
0.0
 11
-195.75000000001111
 21
-272.80000000001382
 31
0.0
  0
LINE
  5
160
  8
DATA
  6
CONTINUOUS
 62
     7
 10
-205.2500000000112
 20
-286.7321187101943
 30
0.0
 11
-205.2500000000112
 21
-272.80000000001382
 31
0.0
  0
LINE
  5
161
  8
DATA
  6
CONTINUOUS
 62
     7
 10
-195.75000000001111
 20
-286.7321187101943
 30
0.0
 11
-195.75000000001111
 21
-272.80000000001382
 31
0.0
  0
LINE
  5
162
  8
DATA
  6
CONTINUOUS
 62
     7
 10
-196.80000000001121
 20
-211.02094240839079
 30
0.0
 11
-196.80000000001121
 21
-210.52094240839079
 31
0.0
  0
LINE
  5
163
  8
DATA
  6
CONTINUOUS
 62
     7
 10
-196.80000000001121
 20
-209.02094240839079
 30
0.0
 11
-196.80000000001121
 21
-208.52094240839079
 31
0.0
  0
CIRCLE
  5
164
  8
DATA
  6
CONTINUOUS
 62
     7
 10
-204.5000000000112
 20
-420.0000000000137
 30
0.0
 40
1.199999999999988
  0
CIRCLE
  5
165
  8
DATA
  6
CONTINUOUS
 62
     7
 10
-200.5000000000112
 20
-424.0000000000137
 30
0.0
 40
1.199999999999988
  0
CIRCLE
  5
166
  8
DATA
  6
CONTINUOUS
 62
     7
 10
-196.50000000001111
 20
-420.0000000000137
 30
0.0
 40
1.199999999999988
  0
ARC
  5
167
  8
DATA
  6
CONTINUOUS
 62
     7
 10
-196.3305195445773
 20
-413.5389609108816
 30
0.0
 40
1.200000000000027
 50
337.8771943596488
 51
136.45234652942699
  0
CIRCLE
  5
168
  8
DATA
  6
CONTINUOUS
 62
     7
 10
-200.5000000000112
 20
-373.00000000001381
 30
0.0
 40
2.099999999999965
  0
LINE
  5
169
  8
DATA
  6
CONTINUOUS
 62
     7
 10
-201.52412577730169
 20
-373.00000000001381
 30
0.0
 11
-199.47587422272071
 21
-373.00000000001381
 31
0.0
  0
LINE
  5
16A
  8
DATA
  6
CONTINUOUS
 62
     7
 10
-200.5000000000112
 20
-374.02412577730428
 30
0.0
 11
-200.5000000000112
 21
-371.97587422272341
 31
0.0
  0
ARC
  5
16B
  8
DATA
  6
CONTINUOUS
 62
     7
 10
-200.5000000000112
 20
-415.12985190339572
 30
0.0
 40
4.8701480966185748
 50
64.493439204740412
 51
115.5065607952602
  0
TEXT
  5
16C
  8
DATA
 62
     7
 10
-204.94500000001119
 20
-324.5410102311252
 30
0.0
 40
1.954609375
  1
GN 50 E
 41
0.7
 11
-204.94500000001119
 21
-323.56370554362519
 31
0.0
 73
     2
  0
CIRCLE
  5
16D
  8
DATA
  6
CONTINUOUS
 62
     7
 10
-200.5000000000112
 20
199.9999999999861
 30
0.0
 40
7.0
  0
CIRCLE
  5
16E
  8
DATA
  6
CONTINUOUS
 62
     7
 10
-200.5000000000112
 20
199.9999999999861
 30
0.0
 40
1.399999999999977
  0
CIRCLE
  5
16F
  8
DATA
  6
CONTINUOUS
 62
     7
 10
-200.5000000000112
 20
199.9999999999861
 30
0.0
 40
5.849999999999965
  0
CIRCLE
  5
170
  8
DATA
  6
CONTINUOUS
 62
     7
 10
-200.5000000000112
 20
199.9999999999861
 30
0.0
 40
0.75
  0
LINE
  5
171
  8
DATA
  6
CONTINUOUS
 62
     7
 10
-205.25000000001111
 20
134.9999999999861
 30
0.0
 11
-195.75000000001111
 21
134.9999999999861
 31
0.0
  0
LINE
  5
172
  8
DATA
  6
CONTINUOUS
 62
     7
 10
-205.0000000000112
 20
-195.7000000000138
 30
0.0
 11
-205.0000000000112
 21
68.29999999998617
 31
0.0
  0
LINE
  5
173
  8
DATA
  6
CONTINUOUS
 62
     7
 10
-196.00000000001111
 20
-195.7000000000138
 30
0.0
 11
-196.00000000001111
 21
68.29999999998617
 31
0.0
  0
LINE
  5
174
  8
DATA
  6
CONTINUOUS
 62
     7
 10
-205.2500000000112
 20
-205.50000000001381
 30
0.0
 11
-205.2500000000112
 21
-201.7000000000138
 31
0.0
  0
LINE
  5
175
  8
DATA
  6
CONTINUOUS
 62
     7
 10
-195.75000000001111
 20
-205.50000000001381
 30
0.0
 11
-205.2500000000112
 21
-205.50000000001381
 31
0.0
  0
LINE
  5
176
  8
DATA
  6
CONTINUOUS
 62
     7
 10
-195.75000000001111
 20
-201.7000000000138
 30
0.0
 11
-195.75000000001111
 21
-205.50000000001381
 31
0.0
  0
LINE
  5
177
  8
DATA
  6
CONTINUOUS
 62
     7
 10
-205.2500000000112
 20
-201.7000000000138
 30
0.0
 11
-195.75000000001111
 21
-201.7000000000138
 31
0.0
  0
LINE
  5
178
  8
DATA
  6
CONTINUOUS
 62
     7
 10
-205.2500000000112
 20
-200.60000000001381
 30
0.0
 11
-205.2500000000112
 21
-196.8000000000138
 31
0.0
  0
LINE
  5
179
  8
DATA
  6
CONTINUOUS
 62
     7
 10
-195.75000000001111
 20
-200.60000000001381
 30
0.0
 11
-205.2500000000112
 21
-200.60000000001381
 31
0.0
  0
LINE
  5
17A
  8
DATA
  6
CONTINUOUS
 62
     7
 10
-195.75000000001111
 20
-196.8000000000138
 30
0.0
 11
-195.75000000001111
 21
-200.60000000001381
 31
0.0
  0
LINE
  5
17B
  8
DATA
  6
CONTINUOUS
 62
     7
 10
-205.2500000000112
 20
-196.8000000000138
 30
0.0
 11
-195.75000000001111
 21
-196.8000000000138
 31
0.0
  0
LINE
  5
17C
  8
DATA
  6
CONTINUOUS
 62
     7
 10
-204.4500000000113
 20
-201.7000000000138
 30
0.0
 11
-204.4500000000113
 21
-200.60000000001381
 31
0.0
  0
LINE
  5
17D
  8
DATA
  6
CONTINUOUS
 62
     7
 10
-196.55000000001121
 20
-201.7000000000138
 30
0.0
 11
-196.55000000001121
 21
-200.60000000001381
 31
0.0
  0
LINE
  5
17E
  8
DATA
  6
CONTINUOUS
 62
     7
 10
-204.4500000000113
 20
-196.8000000000138
 30
0.0
 11
-204.4500000000113
 21
-195.7000000000138
 31
0.0
  0
LINE
  5
17F
  8
DATA
  6
CONTINUOUS
 62
     7
 10
-196.55000000001121
 20
-196.8000000000138
 30
0.0
 11
-196.55000000001121
 21
-195.7000000000138
 31
0.0
  0
LINE
  5
180
  8
DATA
  6
CONTINUOUS
 62
     7
 10
-205.00000000001131
 20
-195.7000000000138
 30
0.0
 11
-196.00000000001111
 21
-195.7000000000138
 31
0.0
  0
LINE
  5
181
  8
DATA
  6
CONTINUOUS
 62
     7
 10
-205.2500000000112
 20
68.29999999998617
 30
0.0
 11
-205.2500000000112
 21
72.09999999998611
 31
0.0
  0
LINE
  5
182
  8
DATA
  6
CONTINUOUS
 62
     7
 10
-195.75000000001111
 20
68.29999999998617
 30
0.0
 11
-205.2500000000112
 21
68.29999999998617
 31
0.0
  0
LINE
  5
183
  8
DATA
  6
CONTINUOUS
 62
     7
 10
-195.75000000001111
 20
72.09999999998611
 30
0.0
 11
-195.75000000001111
 21
68.29999999998617
 31
0.0
  0
LINE
  5
184
  8
DATA
  6
CONTINUOUS
 62
     7
 10
-205.2500000000112
 20
72.09999999998611
 30
0.0
 11
-195.75000000001111
 21
72.09999999998611
 31
0.0
  0
LINE
  5
185
  8
DATA
  6
CONTINUOUS
 62
     7
 10
-205.2500000000112
 20
73.199999999986133
 30
0.0
 11
-205.2500000000112
 21
76.999999999986102
 31
0.0
  0
LINE
  5
186
  8
DATA
  6
CONTINUOUS
 62
     7
 10
-195.75000000001111
 20
73.199999999986133
 30
0.0
 11
-205.2500000000112
 21
73.199999999986133
 31
0.0
  0
LINE
  5
187
  8
DATA
  6
CONTINUOUS
 62
     7
 10
-195.75000000001111
 20
76.999999999986102
 30
0.0
 11
-195.75000000001111
 21
73.199999999986133
 31
0.0
  0
LINE
  5
188
  8
DATA
  6
CONTINUOUS
 62
     7
 10
-205.2500000000112
 20
76.999999999986102
 30
0.0
 11
-195.75000000001111
 21
76.999999999986102
 31
0.0
  0
LINE
  5
189
  8
DATA
  6
CONTINUOUS
 62
     7
 10
-204.4500000000113
 20
72.09999999998611
 30
0.0
 11
-204.4500000000113
 21
73.199999999986133
 31
0.0
  0
LINE
  5
18A
  8
DATA
  6
CONTINUOUS
 62
     7
 10
-196.55000000001121
 20
72.09999999998611
 30
0.0
 11
-196.55000000001121
 21
73.199999999986133
 31
0.0
  0
LINE
  5
18B
  8
DATA
  6
CONTINUOUS
 62
     7
 10
-196.00000000001111
 20
67.199999999986176
 30
0.0
 11
-205.00000000001131
 21
67.199999999986176
 31
0.0
  0
LINE
  5
18C
  8
DATA
  6
CONTINUOUS
 62
     7
 10
-196.55000000001121
 20
132.9999999999861
 30
0.0
 11
-204.4500000000113
 21
132.33821989527411
 31
0.0
  0
LINE
  5
18D
  8
DATA
  6
CONTINUOUS
 62
     7
 10
-196.55000000001121
 20
131.4999999999861
 30
0.0
 11
-204.4500000000113
 21
130.83821989527411
 31
0.0
  0
LINE
  5
18E
  8
DATA
  6
CONTINUOUS
 62
     7
 10
-204.4500000000113
 20
130.83821989527411
 30
0.0
 11
-204.4500000000113
 21
132.33821989527411
 31
0.0
  0
LINE
  5
18F
  8
DATA
  6
CONTINUOUS
 62
     7
 10
-196.55000000001121
 20
131.4999999999861
 30
0.0
 11
-196.55000000001121
 21
132.9999999999861
 31
0.0
  0
LINE
  5
190
  8
DATA
  6
CONTINUOUS
 62
     7
 10
-204.2000000000113
 20
132.35916230365109
 30
0.0
 11
-204.2000000000113
 21
132.85916230365109
 31
0.0
  0
LINE
  5
191
  8
DATA
  6
CONTINUOUS
 62
     7
 10
-204.2000000000113
 20
134.35916230365109
 30
0.0
 11
-204.2000000000113
 21
134.9999999999861
 31
0.0
  0
LINE
  5
192
  8
DATA
  6
CONTINUOUS
 62
     7
 10
-196.55000000001121
 20
130.9999999999861
 30
0.0
 11
-204.4500000000113
 21
130.33821989527411
 31
0.0
  0
LINE
  5
193
  8
DATA
  6
CONTINUOUS
 62
     7
 10
-196.55000000001121
 20
129.4999999999861
 30
0.0
 11
-204.4500000000113
 21
128.83821989527411
 31
0.0
  0
LINE
  5
194
  8
DATA
  6
CONTINUOUS
 62
     7
 10
-204.4500000000113
 20
128.83821989527411
 30
0.0
 11
-204.4500000000113
 21
130.33821989527411
 31
0.0
  0
LINE
  5
195
  8
DATA
  6
CONTINUOUS
 62
     7
 10
-196.55000000001121
 20
129.4999999999861
 30
0.0
 11
-196.55000000001121
 21
130.9999999999861
 31
0.0
  0
LINE
  5
196
  8
DATA
  6
CONTINUOUS
 62
     7
 10
-204.2000000000113
 20
130.35916230365109
 30
0.0
 11
-204.2000000000113
 21
130.85916230365109
 31
0.0
  0
LINE
  5
197
  8
DATA
  6
CONTINUOUS
 62
     7
 10
-196.55000000001121
 20
128.9999999999861
 30
0.0
 11
-204.4500000000113
 21
128.33821989527411
 31
0.0
  0
LINE
  5
198
  8
DATA
  6
CONTINUOUS
 62
     7
 10
-196.55000000001121
 20
127.4999999999861
 30
0.0
 11
-204.4500000000113
 21
126.83821989527409
 31
0.0
  0
LINE
  5
199
  8
DATA
  6
CONTINUOUS
 62
     7
 10
-204.4500000000113
 20
126.83821989527409
 30
0.0
 11
-204.4500000000113
 21
128.33821989527411
 31
0.0
  0
LINE
  5
19A
  8
DATA
  6
CONTINUOUS
 62
     7
 10
-196.55000000001121
 20
127.4999999999861
 30
0.0
 11
-196.55000000001121
 21
128.9999999999861
 31
0.0
  0
LINE
  5
19B
  8
DATA
  6
CONTINUOUS
 62
     7
 10
-204.2000000000113
 20
128.35916230365109
 30
0.0
 11
-204.2000000000113
 21
128.85916230365109
 31
0.0
  0
LINE
  5
19C
  8
DATA
  6
CONTINUOUS
 62
     7
 10
-196.55000000001121
 20
126.9999999999861
 30
0.0
 11
-204.4500000000113
 21
126.33821989527409
 31
0.0
  0
LINE
  5
19D
  8
DATA
  6
CONTINUOUS
 62
     7
 10
-196.55000000001121
 20
125.4999999999861
 30
0.0
 11
-204.4500000000113
 21
124.83821989527409
 31
0.0
  0
LINE
  5
19E
  8
DATA
  6
CONTINUOUS
 62
     7
 10
-204.4500000000113
 20
124.83821989527409
 30
0.0
 11
-204.4500000000113
 21
126.33821989527409
 31
0.0
  0
LINE
  5
19F
  8
DATA
  6
CONTINUOUS
 62
     7
 10
-196.55000000001121
 20
125.4999999999861
 30
0.0
 11
-196.55000000001121
 21
126.9999999999861
 31
0.0
  0
LINE
  5
1A0
  8
DATA
  6
CONTINUOUS
 62
     7
 10
-204.2000000000113
 20
126.3591623036511
 30
0.0
 11
-204.2000000000113
 21
126.8591623036511
 31
0.0
  0
LINE
  5
1A1
  8
DATA
  6
CONTINUOUS
 62
     7
 10
-196.55000000001121
 20
124.9999999999861
 30
0.0
 11
-204.4500000000113
 21
124.33821989527409
 31
0.0
  0
LINE
  5
1A2
  8
DATA
  6
CONTINUOUS
 62
     7
 10
-196.55000000001121
 20
123.4999999999861
 30
0.0
 11
-204.4500000000113
 21
122.83821989527409
 31
0.0
  0
LINE
  5
1A3
  8
DATA
  6
CONTINUOUS
 62
     7
 10
-204.4500000000113
 20
122.83821989527409
 30
0.0
 11
-204.4500000000113
 21
124.33821989527409
 31
0.0
  0
LINE
  5
1A4
  8
DATA
  6
CONTINUOUS
 62
     7
 10
-196.55000000001121
 20
123.4999999999861
 30
0.0
 11
-196.55000000001121
 21
124.9999999999861
 31
0.0
  0
LINE
  5
1A5
  8
DATA
  6
CONTINUOUS
 62
     7
 10
-204.2000000000113
 20
124.3591623036511
 30
0.0
 11
-204.2000000000113
 21
124.8591623036511
 31
0.0
  0
LINE
  5
1A6
  8
DATA
  6
CONTINUOUS
 62
     7
 10
-196.55000000001121
 20
122.9999999999861
 30
0.0
 11
-204.4500000000113
 21
122.33821989527409
 31
0.0
  0
LINE
  5
1A7
  8
DATA
  6
CONTINUOUS
 62
     7
 10
-196.55000000001121
 20
121.4999999999861
 30
0.0
 11
-204.4500000000113
 21
120.83821989527409
 31
0.0
  0
LINE
  5
1A8
  8
DATA
  6
CONTINUOUS
 62
     7
 10
-204.4500000000113
 20
120.83821989527409
 30
0.0
 11
-204.4500000000113
 21
122.33821989527409
 31
0.0
  0
LINE
  5
1A9
  8
DATA
  6
CONTINUOUS
 62
     7
 10
-196.55000000001121
 20
121.4999999999861
 30
0.0
 11
-196.55000000001121
 21
122.9999999999861
 31
0.0
  0
LINE
  5
1AA
  8
DATA
  6
CONTINUOUS
 62
     7
 10
-204.2000000000113
 20
122.3591623036511
 30
0.0
 11
-204.2000000000113
 21
122.8591623036511
 31
0.0
  0
LINE
  5
1AB
  8
DATA
  6
CONTINUOUS
 62
     7
 10
-196.55000000001121
 20
120.9999999999861
 30
0.0
 11
-204.4500000000113
 21
120.33821989527409
 31
0.0
  0
LINE
  5
1AC
  8
DATA
  6
CONTINUOUS
 62
     7
 10
-196.55000000001121
 20
119.4999999999861
 30
0.0
 11
-204.4500000000113
 21
118.83821989527409
 31
0.0
  0
LINE
  5
1AD
  8
DATA
  6
CONTINUOUS
 62
     7
 10
-204.4500000000113
 20
118.83821989527409
 30
0.0
 11
-204.4500000000113
 21
120.33821989527409
 31
0.0
  0
LINE
  5
1AE
  8
DATA
  6
CONTINUOUS
 62
     7
 10
-196.55000000001121
 20
119.4999999999861
 30
0.0
 11
-196.55000000001121
 21
120.9999999999861
 31
0.0
  0
LINE
  5
1AF
  8
DATA
  6
CONTINUOUS
 62
     7
 10
-204.2000000000113
 20
120.3591623036511
 30
0.0
 11
-204.2000000000113
 21
120.8591623036511
 31
0.0
  0
LINE
  5
1B0
  8
DATA
  6
CONTINUOUS
 62
     7
 10
-196.55000000001121
 20
118.9999999999861
 30
0.0
 11
-204.4500000000113
 21
118.33821989527409
 31
0.0
  0
LINE
  5
1B1
  8
DATA
  6
CONTINUOUS
 62
     7
 10
-196.55000000001121
 20
117.4999999999861
 30
0.0
 11
-204.4500000000113
 21
116.83821989527409
 31
0.0
  0
LINE
  5
1B2
  8
DATA
  6
CONTINUOUS
 62
     7
 10
-204.4500000000113
 20
116.83821989527409
 30
0.0
 11
-204.4500000000113
 21
118.33821989527409
 31
0.0
  0
LINE
  5
1B3
  8
DATA
  6
CONTINUOUS
 62
     7
 10
-196.55000000001121
 20
117.4999999999861
 30
0.0
 11
-196.55000000001121
 21
118.9999999999861
 31
0.0
  0
LINE
  5
1B4
  8
DATA
  6
CONTINUOUS
 62
     7
 10
-204.2000000000113
 20
118.3591623036511
 30
0.0
 11
-204.2000000000113
 21
118.8591623036511
 31
0.0
  0
LINE
  5
1B5
  8
DATA
  6
CONTINUOUS
 62
     7
 10
-196.55000000001121
 20
116.9999999999861
 30
0.0
 11
-204.4500000000113
 21
116.33821989527409
 31
0.0
  0
LINE
  5
1B6
  8
DATA
  6
CONTINUOUS
 62
     7
 10
-196.55000000001121
 20
115.4999999999861
 30
0.0
 11
-204.4500000000113
 21
114.83821989527409
 31
0.0
  0
LINE
  5
1B7
  8
DATA
  6
CONTINUOUS
 62
     7
 10
-204.4500000000113
 20
114.83821989527409
 30
0.0
 11
-204.4500000000113
 21
116.33821989527409
 31
0.0
  0
LINE
  5
1B8
  8
DATA
  6
CONTINUOUS
 62
     7
 10
-196.55000000001121
 20
115.4999999999861
 30
0.0
 11
-196.55000000001121
 21
116.9999999999861
 31
0.0
  0
LINE
  5
1B9
  8
DATA
  6
CONTINUOUS
 62
     7
 10
-204.2000000000113
 20
116.3591623036511
 30
0.0
 11
-204.2000000000113
 21
116.8591623036511
 31
0.0
  0
LINE
  5
1BA
  8
DATA
  6
CONTINUOUS
 62
     7
 10
-196.55000000001121
 20
114.9999999999861
 30
0.0
 11
-204.4500000000113
 21
114.33821989527409
 31
0.0
  0
LINE
  5
1BB
  8
DATA
  6
CONTINUOUS
 62
     7
 10
-196.55000000001121
 20
113.4999999999861
 30
0.0
 11
-204.4500000000113
 21
112.83821989527409
 31
0.0
  0
LINE
  5
1BC
  8
DATA
  6
CONTINUOUS
 62
     7
 10
-204.4500000000113
 20
112.83821989527409
 30
0.0
 11
-204.4500000000113
 21
114.33821989527409
 31
0.0
  0
LINE
  5
1BD
  8
DATA
  6
CONTINUOUS
 62
     7
 10
-196.55000000001121
 20
113.4999999999861
 30
0.0
 11
-196.55000000001121
 21
114.9999999999861
 31
0.0
  0
LINE
  5
1BE
  8
DATA
  6
CONTINUOUS
 62
     7
 10
-204.2000000000113
 20
114.3591623036511
 30
0.0
 11
-204.2000000000113
 21
114.8591623036511
 31
0.0
  0
LINE
  5
1BF
  8
DATA
  6
CONTINUOUS
 62
     7
 10
-196.55000000001121
 20
112.9999999999861
 30
0.0
 11
-204.4500000000113
 21
112.33821989527409
 31
0.0
  0
LINE
  5
1C0
  8
DATA
  6
CONTINUOUS
 62
     7
 10
-196.55000000001121
 20
111.4999999999861
 30
0.0
 11
-204.4500000000113
 21
110.83821989527409
 31
0.0
  0
LINE
  5
1C1
  8
DATA
  6
CONTINUOUS
 62
     7
 10
-204.4500000000113
 20
110.83821989527409
 30
0.0
 11
-204.4500000000113
 21
112.33821989527409
 31
0.0
  0
LINE
  5
1C2
  8
DATA
  6
CONTINUOUS
 62
     7
 10
-196.55000000001121
 20
111.4999999999861
 30
0.0
 11
-196.55000000001121
 21
112.9999999999861
 31
0.0
  0
LINE
  5
1C3
  8
DATA
  6
CONTINUOUS
 62
     7
 10
-204.2000000000113
 20
112.3591623036511
 30
0.0
 11
-204.2000000000113
 21
112.8591623036511
 31
0.0
  0
LINE
  5
1C4
  8
DATA
  6
CONTINUOUS
 62
     7
 10
-196.55000000001121
 20
110.9999999999861
 30
0.0
 11
-204.4500000000113
 21
110.33821989527409
 31
0.0
  0
LINE
  5
1C5
  8
DATA
  6
CONTINUOUS
 62
     7
 10
-196.55000000001121
 20
109.4999999999861
 30
0.0
 11
-204.4500000000113
 21
108.83821989527409
 31
0.0
  0
LINE
  5
1C6
  8
DATA
  6
CONTINUOUS
 62
     7
 10
-204.4500000000113
 20
108.83821989527409
 30
0.0
 11
-204.4500000000113
 21
110.33821989527409
 31
0.0
  0
LINE
  5
1C7
  8
DATA
  6
CONTINUOUS
 62
     7
 10
-196.55000000001121
 20
109.4999999999861
 30
0.0
 11
-196.55000000001121
 21
110.9999999999861
 31
0.0
  0
LINE
  5
1C8
  8
DATA
  6
CONTINUOUS
 62
     7
 10
-204.2000000000113
 20
110.3591623036511
 30
0.0
 11
-204.2000000000113
 21
110.8591623036511
 31
0.0
  0
LINE
  5
1C9
  8
DATA
  6
CONTINUOUS
 62
     7
 10
-196.55000000001121
 20
108.9999999999861
 30
0.0
 11
-204.4500000000113
 21
108.33821989527409
 31
0.0
  0
LINE
  5
1CA
  8
DATA
  6
CONTINUOUS
 62
     7
 10
-196.55000000001121
 20
107.4999999999861
 30
0.0
 11
-204.4500000000113
 21
106.83821989527409
 31
0.0
  0
LINE
  5
1CB
  8
DATA
  6
CONTINUOUS
 62
     7
 10
-204.4500000000113
 20
106.83821989527409
 30
0.0
 11
-204.4500000000113
 21
108.33821989527409
 31
0.0
  0
LINE
  5
1CC
  8
DATA
  6
CONTINUOUS
 62
     7
 10
-196.55000000001121
 20
107.4999999999861
 30
0.0
 11
-196.55000000001121
 21
108.9999999999861
 31
0.0
  0
LINE
  5
1CD
  8
DATA
  6
CONTINUOUS
 62
     7
 10
-204.2000000000113
 20
108.3591623036511
 30
0.0
 11
-204.2000000000113
 21
108.8591623036511
 31
0.0
  0
LINE
  5
1CE
  8
DATA
  6
CONTINUOUS
 62
     7
 10
-196.55000000001121
 20
106.9999999999861
 30
0.0
 11
-204.4500000000113
 21
106.33821989527409
 31
0.0
  0
LINE
  5
1CF
  8
DATA
  6
CONTINUOUS
 62
     7
 10
-196.55000000001121
 20
105.4999999999861
 30
0.0
 11
-204.4500000000113
 21
104.83821989527409
 31
0.0
  0
LINE
  5
1D0
  8
DATA
  6
CONTINUOUS
 62
     7
 10
-204.4500000000113
 20
104.83821989527409
 30
0.0
 11
-204.4500000000113
 21
106.33821989527409
 31
0.0
  0
LINE
  5
1D1
  8
DATA
  6
CONTINUOUS
 62
     7
 10
-196.55000000001121
 20
105.4999999999861
 30
0.0
 11
-196.55000000001121
 21
106.9999999999861
 31
0.0
  0
LINE
  5
1D2
  8
DATA
  6
CONTINUOUS
 62
     7
 10
-204.2000000000113
 20
106.3591623036511
 30
0.0
 11
-204.2000000000113
 21
106.8591623036511
 31
0.0
  0
LINE
  5
1D3
  8
DATA
  6
CONTINUOUS
 62
     7
 10
-196.55000000001121
 20
104.9999999999861
 30
0.0
 11
-204.4500000000113
 21
104.33821989527409
 31
0.0
  0
LINE
  5
1D4
  8
DATA
  6
CONTINUOUS
 62
     7
 10
-196.55000000001121
 20
103.4999999999861
 30
0.0
 11
-204.4500000000113
 21
102.83821989527409
 31
0.0
  0
LINE
  5
1D5
  8
DATA
  6
CONTINUOUS
 62
     7
 10
-204.4500000000113
 20
102.83821989527409
 30
0.0
 11
-204.4500000000113
 21
104.33821989527409
 31
0.0
  0
LINE
  5
1D6
  8
DATA
  6
CONTINUOUS
 62
     7
 10
-196.55000000001121
 20
103.4999999999861
 30
0.0
 11
-196.55000000001121
 21
104.9999999999861
 31
0.0
  0
LINE
  5
1D7
  8
DATA
  6
CONTINUOUS
 62
     7
 10
-204.2000000000113
 20
104.3591623036511
 30
0.0
 11
-204.2000000000113
 21
104.8591623036511
 31
0.0
  0
LINE
  5
1D8
  8
DATA
  6
CONTINUOUS
 62
     7
 10
-196.55000000001121
 20
102.9999999999861
 30
0.0
 11
-204.4500000000113
 21
102.33821989527409
 31
0.0
  0
LINE
  5
1D9
  8
DATA
  6
CONTINUOUS
 62
     7
 10
-196.55000000001121
 20
101.4999999999861
 30
0.0
 11
-204.4500000000113
 21
100.83821989527409
 31
0.0
  0
LINE
  5
1DA
  8
DATA
  6
CONTINUOUS
 62
     7
 10
-204.4500000000113
 20
100.83821989527409
 30
0.0
 11
-204.4500000000113
 21
102.33821989527409
 31
0.0
  0
LINE
  5
1DB
  8
DATA
  6
CONTINUOUS
 62
     7
 10
-196.55000000001121
 20
101.4999999999861
 30
0.0
 11
-196.55000000001121
 21
102.9999999999861
 31
0.0
  0
LINE
  5
1DC
  8
DATA
  6
CONTINUOUS
 62
     7
 10
-204.2000000000113
 20
102.3591623036511
 30
0.0
 11
-204.2000000000113
 21
102.8591623036511
 31
0.0
  0
LINE
  5
1DD
  8
DATA
  6
CONTINUOUS
 62
     7
 10
-196.55000000001121
 20
100.9999999999861
 30
0.0
 11
-204.4500000000113
 21
100.33821989527409
 31
0.0
  0
LINE
  5
1DE
  8
DATA
  6
CONTINUOUS
 62
     7
 10
-196.55000000001121
 20
99.499999999986187
 30
0.0
 11
-204.4500000000113
 21
98.838219895274122
 31
0.0
  0
LINE
  5
1DF
  8
DATA
  6
CONTINUOUS
 62
     7
 10
-204.4500000000113
 20
98.838219895274122
 30
0.0
 11
-204.4500000000113
 21
100.33821989527409
 31
0.0
  0
LINE
  5
1E0
  8
DATA
  6
CONTINUOUS
 62
     7
 10
-196.55000000001121
 20
99.499999999986187
 30
0.0
 11
-196.55000000001121
 21
100.9999999999861
 31
0.0
  0
LINE
  5
1E1
  8
DATA
  6
CONTINUOUS
 62
     7
 10
-204.2000000000113
 20
100.3591623036511
 30
0.0
 11
-204.2000000000113
 21
100.8591623036511
 31
0.0
  0
LINE
  5
1E2
  8
DATA
  6
CONTINUOUS
 62
     7
 10
-196.55000000001121
 20
98.999999999986201
 30
0.0
 11
-204.4500000000113
 21
98.338219895274136
 31
0.0
  0
LINE
  5
1E3
  8
DATA
  6
CONTINUOUS
 62
     7
 10
-196.55000000001121
 20
97.499999999986187
 30
0.0
 11
-204.4500000000113
 21
96.838219895274122
 31
0.0
  0
LINE
  5
1E4
  8
DATA
  6
CONTINUOUS
 62
     7
 10
-204.4500000000113
 20
96.838219895274122
 30
0.0
 11
-204.4500000000113
 21
98.338219895274136
 31
0.0
  0
LINE
  5
1E5
  8
DATA
  6
CONTINUOUS
 62
     7
 10
-196.55000000001121
 20
97.499999999986187
 30
0.0
 11
-196.55000000001121
 21
98.999999999986201
 31
0.0
  0
LINE
  5
1E6
  8
DATA
  6
CONTINUOUS
 62
     7
 10
-204.2000000000113
 20
98.35916230365109
 30
0.0
 11
-204.2000000000113
 21
98.859162303651104
 31
0.0
  0
LINE
  5
1E7
  8
DATA
  6
CONTINUOUS
 62
     7
 10
-196.55000000001121
 20
96.999999999986187
 30
0.0
 11
-204.4500000000113
 21
96.338219895274122
 31
0.0
  0
LINE
  5
1E8
  8
DATA
  6
CONTINUOUS
 62
     7
 10
-196.55000000001121
 20
95.499999999986187
 30
0.0
 11
-204.4500000000113
 21
94.838219895274108
 31
0.0
  0
LINE
  5
1E9
  8
DATA
  6
CONTINUOUS
 62
     7
 10
-204.4500000000113
 20
94.838219895274108
 30
0.0
 11
-204.4500000000113
 21
96.338219895274122
 31
0.0
  0
LINE
  5
1EA
  8
DATA
  6
CONTINUOUS
 62
     7
 10
-196.55000000001121
 20
95.499999999986187
 30
0.0
 11
-196.55000000001121
 21
96.999999999986187
 31
0.0
  0
LINE
  5
1EB
  8
DATA
  6
CONTINUOUS
 62
     7
 10
-204.2000000000113
 20
96.359162303651104
 30
0.0
 11
-204.2000000000113
 21
96.859162303651075
 31
0.0
  0
LINE
  5
1EC
  8
DATA
  6
CONTINUOUS
 62
     7
 10
-196.55000000001121
 20
94.999999999986187
 30
0.0
 11
-204.4500000000113
 21
94.338219895274122
 31
0.0
  0
LINE
  5
1ED
  8
DATA
  6
CONTINUOUS
 62
     7
 10
-196.55000000001121
 20
93.499999999986187
 30
0.0
 11
-204.4500000000113
 21
92.838219895274122
 31
0.0
  0
LINE
  5
1EE
  8
DATA
  6
CONTINUOUS
 62
     7
 10
-204.4500000000113
 20
92.838219895274122
 30
0.0
 11
-204.4500000000113
 21
94.338219895274122
 31
0.0
  0
LINE
  5
1EF
  8
DATA
  6
CONTINUOUS
 62
     7
 10
-196.55000000001121
 20
93.499999999986187
 30
0.0
 11
-196.55000000001121
 21
94.999999999986187
 31
0.0
  0
LINE
  5
1F0
  8
DATA
  6
CONTINUOUS
 62
     7
 10
-204.2000000000113
 20
94.359162303651075
 30
0.0
 11
-204.2000000000113
 21
94.85916230365109
 31
0.0
  0
LINE
  5
1F1
  8
DATA
  6
CONTINUOUS
 62
     7
 10
-196.55000000001121
 20
92.999999999986187
 30
0.0
 11
-204.4500000000113
 21
92.338219895274108
 31
0.0
  0
LINE
  5
1F2
  8
DATA
  6
CONTINUOUS
 62
     7
 10
-196.55000000001121
 20
91.499999999986187
 30
0.0
 11
-204.4500000000113
 21
90.838219895274136
 31
0.0
  0
LINE
  5
1F3
  8
DATA
  6
CONTINUOUS
 62
     7
 10
-204.4500000000113
 20
90.838219895274136
 30
0.0
 11
-204.4500000000113
 21
92.338219895274108
 31
0.0
  0
LINE
  5
1F4
  8
DATA
  6
CONTINUOUS
 62
     7
 10
-196.55000000001121
 20
91.499999999986187
 30
0.0
 11
-196.55000000001121
 21
92.999999999986187
 31
0.0
  0
LINE
  5
1F5
  8
DATA
  6
CONTINUOUS
 62
     7
 10
-204.2000000000113
 20
92.35916230365109
 30
0.0
 11
-204.2000000000113
 21
92.859162303651075
 31
0.0
  0
LINE
  5
1F6
  8
DATA
  6
CONTINUOUS
 62
     7
 10
-196.55000000001121
 20
90.999999999986187
 30
0.0
 11
-204.4500000000113
 21
90.338219895274122
 31
0.0
  0
LINE
  5
1F7
  8
DATA
  6
CONTINUOUS
 62
     7
 10
-196.55000000001121
 20
89.499999999986144
 30
0.0
 11
-204.4500000000113
 21
88.838219895274122
 31
0.0
  0
LINE
  5
1F8
  8
DATA
  6
CONTINUOUS
 62
     7
 10
-204.4500000000113
 20
88.838219895274122
 30
0.0
 11
-204.4500000000113
 21
90.338219895274122
 31
0.0
  0
LINE
  5
1F9
  8
DATA
  6
CONTINUOUS
 62
     7
 10
-196.55000000001121
 20
89.499999999986144
 30
0.0
 11
-196.55000000001121
 21
90.999999999986187
 31
0.0
  0
LINE
  5
1FA
  8
DATA
  6
CONTINUOUS
 62
     7
 10
-204.2000000000113
 20
90.359162303651075
 30
0.0
 11
-204.2000000000113
 21
90.85916230365109
 31
0.0
  0
LINE
  5
1FB
  8
DATA
  6
CONTINUOUS
 62
     7
 10
-196.55000000001121
 20
88.999999999986159
 30
0.0
 11
-204.4500000000113
 21
88.338219895274136
 31
0.0
  0
LINE
  5
1FC
  8
DATA
  6
CONTINUOUS
 62
     7
 10
-196.55000000001121
 20
87.499999999986159
 30
0.0
 11
-204.4500000000113
 21
86.838219895274122
 31
0.0
  0
LINE
  5
1FD
  8
DATA
  6
CONTINUOUS
 62
     7
 10
-204.4500000000113
 20
86.838219895274122
 30
0.0
 11
-204.4500000000113
 21
88.338219895274136
 31
0.0
  0
LINE
  5
1FE
  8
DATA
  6
CONTINUOUS
 62
     7
 10
-196.55000000001121
 20
87.499999999986159
 30
0.0
 11
-196.55000000001121
 21
88.999999999986159
 31
0.0
  0
LINE
  5
1FF
  8
DATA
  6
CONTINUOUS
 62
     7
 10
-204.2000000000113
 20
88.359162303651047
 30
0.0
 11
-204.2000000000113
 21
88.859162303651061
 31
0.0
  0
LINE
  5
200
  8
DATA
  6
CONTINUOUS
 62
     7
 10
-196.55000000001121
 20
86.999999999986144
 30
0.0
 11
-204.4500000000113
 21
86.338219895274122
 31
0.0
  0
LINE
  5
201
  8
DATA
  6
CONTINUOUS
 62
     7
 10
-196.55000000001121
 20
85.499999999986159
 30
0.0
 11
-204.4500000000113
 21
84.838219895274108
 31
0.0
  0
LINE
  5
202
  8
DATA
  6
CONTINUOUS
 62
     7
 10
-204.4500000000113
 20
84.838219895274108
 30
0.0
 11
-204.4500000000113
 21
86.338219895274122
 31
0.0
  0
LINE
  5
203
  8
DATA
  6
CONTINUOUS
 62
     7
 10
-196.55000000001121
 20
85.499999999986159
 30
0.0
 11
-196.55000000001121
 21
86.999999999986144
 31
0.0
  0
LINE
  5
204
  8
DATA
  6
CONTINUOUS
 62
     7
 10
-204.2000000000113
 20
86.359162303651061
 30
0.0
 11
-204.2000000000113
 21
86.859162303651075
 31
0.0
  0
LINE
  5
205
  8
DATA
  6
CONTINUOUS
 62
     7
 10
-196.55000000001121
 20
84.999999999986159
 30
0.0
 11
-204.4500000000113
 21
84.338219895274122
 31
0.0
  0
LINE
  5
206
  8
DATA
  6
CONTINUOUS
 62
     7
 10
-196.55000000001121
 20
83.499999999986144
 30
0.0
 11
-204.4500000000113
 21
82.838219895274165
 31
0.0
  0
LINE
  5
207
  8
DATA
  6
CONTINUOUS
 62
     7
 10
-204.4500000000113
 20
82.838219895274165
 30
0.0
 11
-204.4500000000113
 21
84.338219895274122
 31
0.0
  0
LINE
  5
208
  8
DATA
  6
CONTINUOUS
 62
     7
 10
-196.55000000001121
 20
83.499999999986144
 30
0.0
 11
-196.55000000001121
 21
84.999999999986159
 31
0.0
  0
LINE
  5
209
  8
DATA
  6
CONTINUOUS
 62
     7
 10
-204.2000000000113
 20
84.359162303651075
 30
0.0
 11
-204.2000000000113
 21
84.859162303651061
 31
0.0
  0
LINE
  5
20A
  8
DATA
  6
CONTINUOUS
 62
     7
 10
-196.55000000001121
 20
82.99999999998613
 30
0.0
 11
-204.4500000000113
 21
82.33821989527415
 31
0.0
  0
LINE
  5
20B
  8
DATA
  6
CONTINUOUS
 62
     7
 10
-196.55000000001121
 20
81.49999999998613
 30
0.0
 11
-204.4500000000113
 21
80.83821989527415
 31
0.0
  0
LINE
  5
20C
  8
DATA
  6
CONTINUOUS
 62
     7
 10
-204.4500000000113
 20
80.83821989527415
 30
0.0
 11
-204.4500000000113
 21
82.33821989527415
 31
0.0
  0
LINE
  5
20D
  8
DATA
  6
CONTINUOUS
 62
     7
 10
-196.55000000001121
 20
81.49999999998613
 30
0.0
 11
-196.55000000001121
 21
82.99999999998613
 31
0.0
  0
LINE
  5
20E
  8
DATA
  6
CONTINUOUS
 62
     7
 10
-204.2000000000113
 20
82.359162303651019
 30
0.0
 11
-204.2000000000113
 21
82.859162303651004
 31
0.0
  0
LINE
  5
20F
  8
DATA
  6
CONTINUOUS
 62
     7
 10
-196.55000000001121
 20
80.999999999986144
 30
0.0
 11
-204.4500000000113
 21
80.338219895274165
 31
0.0
  0
LINE
  5
210
  8
DATA
  6
CONTINUOUS
 62
     7
 10
-196.55000000001121
 20
79.49999999998613
 30
0.0
 11
-204.4500000000113
 21
78.83821989527415
 31
0.0
  0
LINE
  5
211
  8
DATA
  6
CONTINUOUS
 62
     7
 10
-204.4500000000113
 20
78.83821989527415
 30
0.0
 11
-204.4500000000113
 21
80.338219895274165
 31
0.0
  0
LINE
  5
212
  8
DATA
  6
CONTINUOUS
 62
     7
 10
-196.55000000001121
 20
79.49999999998613
 30
0.0
 11
-196.55000000001121
 21
80.999999999986144
 31
0.0
  0
LINE
  5
213
  8
DATA
  6
CONTINUOUS
 62
     7
 10
-204.2000000000113
 20
80.359162303651004
 30
0.0
 11
-204.2000000000113
 21
80.859162303651019
 31
0.0
  0
LINE
  5
214
  8
DATA
  6
CONTINUOUS
 62
     7
 10
-196.55000000001121
 20
78.99999999998613
 30
0.0
 11
-204.4500000000113
 21
78.33821989527415
 31
0.0
  0
LINE
  5
215
  8
DATA
  6
CONTINUOUS
 62
     7
 10
-196.55000000001121
 20
77.49999999998613
 30
0.0
 11
-202.5187500000111
 21
76.99999999998613
 31
0.0
  0
LINE
  5
216
  8
DATA
  6
CONTINUOUS
 62
     7
 10
-204.4500000000113
 20
76.99999999998613
 30
0.0
 11
-204.4500000000113
 21
78.33821989527415
 31
0.0
  0
LINE
  5
217
  8
DATA
  6
CONTINUOUS
 62
     7
 10
-196.55000000001121
 20
77.49999999998613
 30
0.0
 11
-196.55000000001121
 21
78.99999999998613
 31
0.0
  0
LINE
  5
218
  8
DATA
  6
CONTINUOUS
 62
     7
 10
-204.2000000000113
 20
78.359162303651019
 30
0.0
 11
-204.2000000000113
 21
78.859162303651019
 31
0.0
  0
LINE
  5
219
  8
DATA
  6
CONTINUOUS
 62
     7
 10
-196.80000000001121
 20
126.97905759160921
 30
0.0
 11
-196.80000000001121
 21
127.47905759160921
 31
0.0
  0
LINE
  5
21A
  8
DATA
  6
CONTINUOUS
 62
     7
 10
-196.80000000001121
 20
124.97905759160921
 30
0.0
 11
-196.80000000001121
 21
125.47905759160921
 31
0.0
  0
LINE
  5
21B
  8
DATA
  6
CONTINUOUS
 62
     7
 10
-196.80000000001121
 20
122.97905759160921
 30
0.0
 11
-196.80000000001121
 21
123.47905759160921
 31
0.0
  0
LINE
  5
21C
  8
DATA
  6
CONTINUOUS
 62
     7
 10
-196.80000000001121
 20
120.97905759160921
 30
0.0
 11
-196.80000000001121
 21
121.47905759160921
 31
0.0
  0
LINE
  5
21D
  8
DATA
  6
CONTINUOUS
 62
     7
 10
-196.80000000001121
 20
118.97905759160921
 30
0.0
 11
-196.80000000001121
 21
119.47905759160921
 31
0.0
  0
LINE
  5
21E
  8
DATA
  6
CONTINUOUS
 62
     7
 10
-196.80000000001121
 20
116.97905759160921
 30
0.0
 11
-196.80000000001121
 21
117.47905759160921
 31
0.0
  0
LINE
  5
21F
  8
DATA
  6
CONTINUOUS
 62
     7
 10
-196.80000000001121
 20
114.97905759160921
 30
0.0
 11
-196.80000000001121
 21
115.47905759160921
 31
0.0
  0
LINE
  5
220
  8
DATA
  6
CONTINUOUS
 62
     7
 10
-196.80000000001121
 20
112.97905759160921
 30
0.0
 11
-196.80000000001121
 21
113.47905759160921
 31
0.0
  0
LINE
  5
221
  8
DATA
  6
CONTINUOUS
 62
     7
 10
-196.80000000001121
 20
110.97905759160921
 30
0.0
 11
-196.80000000001121
 21
111.47905759160921
 31
0.0
  0
LINE
  5
222
  8
DATA
  6
CONTINUOUS
 62
     7
 10
-196.80000000001121
 20
108.97905759160921
 30
0.0
 11
-196.80000000001121
 21
109.47905759160921
 31
0.0
  0
LINE
  5
223
  8
DATA
  6
CONTINUOUS
 62
     7
 10
-196.80000000001121
 20
106.97905759160921
 30
0.0
 11
-196.80000000001121
 21
107.47905759160921
 31
0.0
  0
LINE
  5
224
  8
DATA
  6
CONTINUOUS
 62
     7
 10
-196.80000000001121
 20
104.97905759160921
 30
0.0
 11
-196.80000000001121
 21
105.47905759160921
 31
0.0
  0
LINE
  5
225
  8
DATA
  6
CONTINUOUS
 62
     7
 10
-196.80000000001121
 20
102.97905759160921
 30
0.0
 11
-196.80000000001121
 21
103.47905759160921
 31
0.0
  0
LINE
  5
226
  8
DATA
  6
CONTINUOUS
 62
     7
 10
-196.80000000001121
 20
100.97905759160921
 30
0.0
 11
-196.80000000001121
 21
101.47905759160921
 31
0.0
  0
LINE
  5
227
  8
DATA
  6
CONTINUOUS
 62
     7
 10
-196.80000000001121
 20
98.979057591609205
 30
0.0
 11
-196.80000000001121
 21
99.479057591609205
 31
0.0
  0
LINE
  5
228
  8
DATA
  6
CONTINUOUS
 62
     7
 10
-196.80000000001121
 20
96.979057591609205
 30
0.0
 11
-196.80000000001121
 21
97.479057591609205
 31
0.0
  0
LINE
  5
229
  8
DATA
  6
CONTINUOUS
 62
     7
 10
-196.80000000001121
 20
94.979057591609205
 30
0.0
 11
-196.80000000001121
 21
95.479057591609205
 31
0.0
  0
LINE
  5
22A
  8
DATA
  6
CONTINUOUS
 62
     7
 10
-196.80000000001121
 20
92.979057591609205
 30
0.0
 11
-196.80000000001121
 21
93.479057591609205
 31
0.0
  0
LINE
  5
22B
  8
DATA
  6
CONTINUOUS
 62
     7
 10
-196.80000000001121
 20
90.979057591609205
 30
0.0
 11
-196.80000000001121
 21
91.479057591609205
 31
0.0
  0
LINE
  5
22C
  8
DATA
  6
CONTINUOUS
 62
     7
 10
-196.80000000001121
 20
88.979057591609177
 30
0.0
 11
-196.80000000001121
 21
89.479057591609205
 31
0.0
  0
LINE
  5
22D
  8
DATA
  6
CONTINUOUS
 62
     7
 10
-196.80000000001121
 20
86.979057591609177
 30
0.0
 11
-196.80000000001121
 21
87.479057591609177
 31
0.0
  0
LINE
  5
22E
  8
DATA
  6
CONTINUOUS
 62
     7
 10
-196.80000000001121
 20
84.979057591609177
 30
0.0
 11
-196.80000000001121
 21
85.479057591609177
 31
0.0
  0
LINE
  5
22F
  8
DATA
  6
CONTINUOUS
 62
     7
 10
-196.80000000001121
 20
82.979057591609148
 30
0.0
 11
-196.80000000001121
 21
83.479057591609134
 31
0.0
  0
LINE
  5
230
  8
DATA
  6
CONTINUOUS
 62
     7
 10
-196.80000000001121
 20
80.979057591609134
 30
0.0
 11
-196.80000000001121
 21
81.479057591609148
 31
0.0
  0
LINE
  5
231
  8
DATA
  6
CONTINUOUS
 62
     7
 10
-196.80000000001121
 20
78.979057591609148
 30
0.0
 11
-196.80000000001121
 21
79.479057591609148
 31
0.0
  0
LINE
  5
232
  8
DATA
  6
CONTINUOUS
 62
     7
 10
-196.80000000001121
 20
76.99999999998613
 30
0.0
 11
-196.80000000001121
 21
77.479057591609134
 31
0.0
  0
LINE
  5
233
  8
DATA
  6
CONTINUOUS
 62
     7
 10
-196.80000000001121
 20
128.97905759160921
 30
0.0
 11
-196.80000000001121
 21
129.47905759160921
 31
0.0
  0
LINE
  5
234
  8
DATA
  6
CONTINUOUS
 62
     7
 10
-196.80000000001121
 20
132.97905759160921
 30
0.0
 11
-196.80000000001121
 21
133.47905759160921
 31
0.0
  0
LINE
  5
235
  8
DATA
  6
CONTINUOUS
 62
     7
 10
-196.80000000001121
 20
134.97905759160921
 30
0.0
 11
-196.80000000001121
 21
134.9999999999861
 31
0.0
  0
LINE
  5
236
  8
DATA
  6
CONTINUOUS
 62
     7
 10
-196.55000000001121
 20
134.9999999999861
 30
0.0
 11
-204.4500000000113
 21
134.33821989527411
 31
0.0
  0
LINE
  5
237
  8
DATA
  6
CONTINUOUS
 62
     7
 10
-196.55000000001121
 20
133.4999999999861
 30
0.0
 11
-204.4500000000113
 21
132.83821989527411
 31
0.0
  0
LINE
  5
238
  8
DATA
  6
CONTINUOUS
 62
     7
 10
-204.4500000000113
 20
132.83821989527411
 30
0.0
 11
-204.4500000000113
 21
134.33821989527411
 31
0.0
  0
LINE
  5
239
  8
DATA
  6
CONTINUOUS
 62
     7
 10
-196.55000000001121
 20
133.4999999999861
 30
0.0
 11
-196.55000000001121
 21
134.9999999999861
 31
0.0
  0
TEXT
  5
23A
  8
DATA
 62
     7
 10
243.52019125398459
 20
-559.1863873668658
 30
0.0
 40
8.1442057291666661
  1
Modular Series用グースネック
 41
0.7
 11
243.52019125398459
 21
-551.04218163769906
 31
0.0
 73
     3
  0
LINE
  5
23B
  8
DATA
  6
CONTINUOUS
 62
     7
 10
-60.000000000011198
 20
-390.00000000001381
 30
0.0
 11
-60.000000000011198
 21
-328.83366693284972
 31
0.0
  0
LINE
  5
23C
  8
DATA
  6
CONTINUOUS
 62
     7
 10
-41.000000000011191
 20
-390.00000000001381
 30
0.0
 11
-60.000000000011198
 21
-390.00000000001381
 31
0.0
  0
LINE
  5
23D
  8
DATA
  6
CONTINUOUS
 62
     7
 10
191.58298518530799
 20
118.4895731717679
 30
0.0
 11
198.5829851853081
 21
106.3652175187858
 31
0.0
  0
LINE
  5
23E
  8
DATA
  6
CONTINUOUS
 62
     7
 10
183.80492969222641
 20
113.4215604698757
 30
0.0
 11
191.58298518530799
 21
118.4895731717679
 31
0.0
  0
LINE
  5
23F
  8
DATA
  6
CONTINUOUS
 62
     7
 10
190.30492969222641
 20
102.163230220678
 30
0.0
 11
198.5829851853081
 21
106.3652175187858
 31
0.0
  0
LINE
  5
240
  8
DATA
  6
CONTINUOUS
 62
     7
 10
181.5800585616299
 20
111.67515030836201
 30
0.0
 11
187.68005856162981
 21
101.1096403821917
 31
0.0
  0
LINE
  5
241
  8
DATA
  6
CONTINUOUS
 62
     7
 10
159.4855070460512
 20
97.367418930611819
 30
0.0
 11
164.2419239601852
 21
89.129063173351653
 31
0.0
  0
LINE
  5
242
  8
DATA
  6
CONTINUOUS
 62
     7
 10
181.5800585616299
 20
111.67515030836201
 30
0.0
 11
183.80492969222641
 21
113.4215604698757
 31
0.0
  0
LINE
  5
243
  8
DATA
  6
CONTINUOUS
 62
     7
 10
187.68005856162981
 20
101.1096403821917
 30
0.0
 11
190.30492969222641
 21
102.163230220678
 31
0.0
  0
LINE
  5
244
  8
DATA
  6
CONTINUOUS
 62
     7
 10
159.4855070460512
 20
97.367418930611819
 30
0.0
 11
167.54324847555941
 21
102.12761855363129
 31
0.0
  0
LINE
  5
245
  8
DATA
  6
CONTINUOUS
 62
     7
 10
164.24192396018529
 20
89.129063173351554
 30
0.0
 11
172.39324847555929
 21
93.727172136922277
 31
0.0
  0
LINE
  5
246
  8
DATA
  6
CONTINUOUS
 62
     7
 10
167.54324847555941
 20
102.12761855363129
 30
0.0
 11
170.9573500906971
 21
104.2142210940098
 31
0.0
  0
LINE
  5
247
  8
DATA
  6
CONTINUOUS
 62
     7
 10
172.39324847555929
 20
93.727172136922277
 30
0.0
 11
175.90735009069709
 21
95.640569596543813
 31
0.0
  0
LINE
  5
248
  8
DATA
  6
CONTINUOUS
 62
     7
 10
170.9573500906971
 20
104.2142210940098
 30
0.0
 11
181.5800585616299
 21
111.67515030836201
 31
0.0
  0
LINE
  5
249
  8
DATA
  6
CONTINUOUS
 62
     7
 10
175.90735009069709
 20
95.640569596543813
 30
0.0
 11
187.68005856162981
 21
101.1096403821917
 31
0.0
  0
LINE
  5
24A
  8
DATA
  6
CONTINUOUS
 62
     7
 10
183.32817159281279
 20
113.0473297209799
 30
0.0
 11
189.7424573070985
 21
101.93746096957381
 31
0.0
  0
ARC
  5
24B
  8
DATA
  6
CONTINUOUS
 62
     7
 10
252.4296762589853
 20
-349.57884892087759
 30
0.0
 40
313.39499425098683
 50
169.60756357651911
 51
174.671651491348
  0
ARC
  5
24C
  8
DATA
  6
CONTINUOUS
 62
     7
 10
-90.25000000001188
 20
-286.7321187101943
 30
0.0
 40
35.000000000000668
 50
349.60756357651923
 51
0.0
  0
ARC
  5
24D
  8
DATA
  6
CONTINUOUS
 62
     7
 10
29.99999999999045
 20
-328.83366693284972
 30
0.0
 40
90.000000000001663
 50
175.38460768178669
 51
180.0
  0
LINE
  5
24E
  8
DATA
  6
CONTINUOUS
 62
     7
 10
-59.708156758478019
 20
-321.59166368800447
 30
0.0
 11
-59.61109863017338
 21
-320.47597572682008
 31
0.0
  0
LINE
  5
24F
  8
DATA
  6
CONTINUOUS
 62
     7
 10
-41.000000000011191
 20
-390.00000000001381
 30
0.0
 11
-41.000000000011191
 21
-328.83366693284972
 31
0.0
  0
ARC
  5
250
  8
DATA
  6
CONTINUOUS
 62
     7
 10
-353.42967625900741
 20
-349.57884892087759
 30
0.0
 40
313.3949942509866
 50
5.3283485086520459
 51
10.39243642348095
  0
ARC
  5
251
  8
DATA
  6
CONTINUOUS
 62
     7
 10
-10.750000000010459
 20
-286.7321187101943
 30
0.0
 40
35.000000000000732
 50
180.0
 51
190.3924364234806
  0
ARC
  5
252
  8
DATA
  6
CONTINUOUS
 62
     7
 10
-131.00000000001251
 20
-328.83366693284972
 30
0.0
 40
90.000000000001293
 50
0.0
 51
4.6153923182133667
  0
LINE
  5
253
  8
DATA
  6
CONTINUOUS
 62
     7
 10
-41.29184324154442
 20
-321.59166368800447
 30
0.0
 11
-41.388901369849002
 21
-320.47597572682008
 31
0.0
  0
POLYLINE
  5
254
  8
DATA
  6
CONTINUOUS
 62
     7
 66
     1
 10
0.0
 20
0.0
 30
0.0
 70
     1
  0
VERTEX
  5
4A0
  8
DATA
  6
CONTINUOUS
 62
     7
 10
154.42966233803591
 20
94.441016013252835
 30
0.0
  0
VERTEX
  5
4A1
  8
DATA
  6
CONTINUOUS
 62
     7
 10
159.17966233803591
 20
86.213774677300663
 30
0.0
  0
VERTEX
  5
4A2
  8
DATA
  6
CONTINUOUS
 62
     7
 10
155.88876580365499
 20
84.313774677300671
 30
0.0
  0
VERTEX
  5
4A3
  8
DATA
  6
CONTINUOUS
 62
     7
 10
151.13876580365499
 20
92.541016013252843
 30
0.0
  0
SEQEND
  5
4A4
  8
DATA
  6
CONTINUOUS
 62
     7
  0
POLYLINE
  5
25B
  8
DATA
  6
CONTINUOUS
 62
     7
 66
     1
 10
0.0
 20
0.0
 30
0.0
 70
     1
  0
VERTEX
  5
4A5
  8
DATA
  6
CONTINUOUS
 62
     7
 10
158.6731868165796
 20
96.891016013252852
 30
0.0
  0
VERTEX
  5
4A6
  8
DATA
  6
CONTINUOUS
 62
     7
 10
163.4231868165796
 20
88.663774677300665
 30
0.0
  0
VERTEX
  5
4A7
  8
DATA
  6
CONTINUOUS
 62
     7
 10
160.13229028219871
 20
86.76377467730066
 30
0.0
  0
VERTEX
  5
4A8
  8
DATA
  6
CONTINUOUS
 62
     7
 10
155.38229028219871
 20
94.991016013252846
 30
0.0
  0
SEQEND
  5
4A9
  8
DATA
  6
CONTINUOUS
 62
     7
  0
LINE
  5
262
  8
DATA
  6
CONTINUOUS
 62
     7
 10
154.8296623380358
 20
93.748195690225373
 30
0.0
 11
155.78229028219869
 21
94.298195690225356
 31
0.0
  0
LINE
  5
263
  8
DATA
  6
CONTINUOUS
 62
     7
 10
158.77966233803591
 20
86.906595000328267
 30
0.0
 11
159.7322902821987
 21
87.45659500032825
 31
0.0
  0
LINE
  5
264
  8
DATA
  6
CONTINUOUS
 62
     7
 10
159.07318681657961
 20
96.198195690225347
 30
0.0
 11
159.88871550311819
 21
96.669041396930268
 31
0.0
  0
LINE
  5
265
  8
DATA
  6
CONTINUOUS
 62
     7
 10
163.0231868165796
 20
89.356595000328255
 30
0.0
 11
163.83871550311821
 21
89.827440707033176
 31
0.0
  0
LINE
  5
266
  8
DATA
  6
CONTINUOUS
 62
     7
 10
-35.673425506488151
 20
-201.11939344226229
 30
0.0
 11
-37.426827120052771
 21
-200.29387412269929
 31
0.0
  0
LINE
  5
267
  8
DATA
  6
CONTINUOUS
 62
     7
 10
-31.004336377799689
 20
-204.9697938459762
 30
0.0
 11
-38.176827120052771
 21
-201.59291222837589
 31
0.0
  0
LINE
  5
268
  8
DATA
  6
CONTINUOUS
 62
     7
 10
-38.176827120052771
 20
-201.59291222837589
 30
0.0
 11
-37.426827120052771
 21
-200.29387412269929
 31
0.0
  0
LINE
  5
269
  8
DATA
  6
CONTINUOUS
 62
     7
 10
-31.004336377799689
 20
-204.9697938459762
 30
0.0
 11
-30.5043363777928
 21
-204.10376844217981
 31
0.0
  0
LINE
  5
26A
  8
DATA
  6
CONTINUOUS
 62
     7
 10
-31.254336377799682
 20
-205.40280654786841
 30
0.0
 11
-38.426827120052771
 21
-202.0259249302681
 31
0.0
  0
LINE
  5
26B
  8
DATA
  6
CONTINUOUS
 62
     7
 10
-32.00433637779966
 20
-206.70184465354509
 30
0.0
 11
-39.176827120052771
 21
-203.32496303594479
 31
0.0
  0
LINE
  5
26C
  8
DATA
  6
CONTINUOUS
 62
     7
 10
-39.176827120052771
 20
-203.32496303594479
 30
0.0
 11
-38.426827120052771
 21
-202.0259249302681
 31
0.0
  0
LINE
  5
26D
  8
DATA
  6
CONTINUOUS
 62
     7
 10
-32.00433637779966
 20
-206.70184465354509
 30
0.0
 11
-31.254336377799682
 21
-205.40280654786841
 31
0.0
  0
LINE
  5
26E
  8
DATA
  6
CONTINUOUS
 62
     7
 10
-38.19984956491821
 20
-202.1327882725972
 30
0.0
 11
-37.949849564918203
 21
-201.6997755707051
 31
0.0
  0
LINE
  5
26F
  8
DATA
  6
CONTINUOUS
 62
     7
 10
-37.19984956491821
 20
-200.40073746502841
 30
0.0
 11
-37.129430716743741
 21
-200.27876844217971
 31
0.0
  0
LINE
  5
270
  8
DATA
  6
CONTINUOUS
 62
     7
 10
-31.481313932934281
 20
-205.29594320553929
 30
0.0
 11
-31.231313932934281
 21
-204.86293050364699
 31
0.0
  0
LINE
  5
271
  8
DATA
  6
CONTINUOUS
 62
     7
 10
-32.25433637779966
 20
-207.1348573554373
 30
0.0
 11
-39.426827120052771
 21
-203.757975737837
 31
0.0
  0
LINE
  5
272
  8
DATA
  6
CONTINUOUS
 62
     7
 10
-33.00433637779966
 20
-208.43389546111399
 30
0.0
 11
-40.176827120052771
 21
-205.05701384351369
 31
0.0
  0
LINE
  5
273
  8
DATA
  6
CONTINUOUS
 62
     7
 10
-40.176827120052771
 20
-205.05701384351369
 30
0.0
 11
-39.426827120052771
 21
-203.757975737837
 31
0.0
  0
LINE
  5
274
  8
DATA
  6
CONTINUOUS
 62
     7
 10
-33.00433637779966
 20
-208.43389546111399
 30
0.0
 11
-32.25433637779966
 21
-207.1348573554373
 31
0.0
  0
LINE
  5
275
  8
DATA
  6
CONTINUOUS
 62
     7
 10
-39.199849564918203
 20
-203.86483908016609
 30
0.0
 11
-38.949849564918203
 21
-203.43182637827391
 31
0.0
  0
LINE
  5
276
  8
DATA
  6
CONTINUOUS
 62
     7
 10
-33.25433637779966
 20
-208.8669081630062
 30
0.0
 11
-40.426827120052771
 21
-205.4900265454059
 31
0.0
  0
LINE
  5
277
  8
DATA
  6
CONTINUOUS
 62
     7
 10
-34.00433637779966
 20
-210.16594626868289
 30
0.0
 11
-41.176827120052771
 21
-206.7890646510825
 31
0.0
  0
LINE
  5
278
  8
DATA
  6
CONTINUOUS
 62
     7
 10
-41.176827120052771
 20
-206.7890646510825
 30
0.0
 11
-40.426827120052771
 21
-205.4900265454059
 31
0.0
  0
LINE
  5
279
  8
DATA
  6
CONTINUOUS
 62
     7
 10
-34.00433637779966
 20
-210.16594626868289
 30
0.0
 11
-33.25433637779966
 21
-208.8669081630062
 31
0.0
  0
LINE
  5
27A
  8
DATA
  6
CONTINUOUS
 62
     7
 10
-40.199849564918203
 20
-205.59688988773499
 30
0.0
 11
-39.94984956491821
 21
-205.16387718584281
 31
0.0
  0
LINE
  5
27B
  8
DATA
  6
CONTINUOUS
 62
     7
 10
-34.25433637779966
 20
-210.5989589705751
 30
0.0
 11
-41.426827120052771
 21
-207.22207735297479
 31
0.0
  0
LINE
  5
27C
  8
DATA
  6
CONTINUOUS
 62
     7
 10
-35.00433637779966
 20
-211.89799707625161
 30
0.0
 11
-42.176827120052756
 21
-208.52111545865139
 31
0.0
  0
LINE
  5
27D
  8
DATA
  6
CONTINUOUS
 62
     7
 10
-42.176827120052756
 20
-208.52111545865139
 30
0.0
 11
-41.426827120052771
 21
-207.22207735297479
 31
0.0
  0
LINE
  5
27E
  8
DATA
  6
CONTINUOUS
 62
     7
 10
-35.00433637779966
 20
-211.89799707625161
 30
0.0
 11
-34.25433637779966
 21
-210.5989589705751
 31
0.0
  0
LINE
  5
27F
  8
DATA
  6
CONTINUOUS
 62
     7
 10
-41.199849564918203
 20
-207.32894069530391
 30
0.0
 11
-40.949849564918203
 21
-206.8959279934117
 31
0.0
  0
LINE
  5
280
  8
DATA
  6
CONTINUOUS
 62
     7
 10
-35.254336377799653
 20
-212.33100977814391
 30
0.0
 11
-42.426827120052771
 21
-208.9541281605436
 31
0.0
  0
LINE
  5
281
  8
DATA
  6
CONTINUOUS
 62
     7
 10
-36.004336377799653
 20
-213.63004788382059
 30
0.0
 11
-43.176827120052778
 21
-210.25316626622029
 31
0.0
  0
LINE
  5
282
  8
DATA
  6
CONTINUOUS
 62
     7
 10
-43.176827120052778
 20
-210.25316626622029
 30
0.0
 11
-42.426827120052771
 21
-208.9541281605436
 31
0.0
  0
LINE
  5
283
  8
DATA
  6
CONTINUOUS
 62
     7
 10
-36.004336377799653
 20
-213.63004788382059
 30
0.0
 11
-35.254336377799653
 21
-212.33100977814391
 31
0.0
  0
LINE
  5
284
  8
DATA
  6
CONTINUOUS
 62
     7
 10
-42.199849564918203
 20
-209.06099150287281
 30
0.0
 11
-41.949849564918203
 21
-208.6279788009806
 31
0.0
  0
LINE
  5
285
  8
DATA
  6
CONTINUOUS
 62
     7
 10
-36.254336377799653
 20
-214.0630605857128
 30
0.0
 11
-43.426827120052771
 21
-210.6861789681125
 31
0.0
  0
LINE
  5
286
  8
DATA
  6
CONTINUOUS
 62
     7
 10
-37.00433637779966
 20
-215.36209869138941
 30
0.0
 11
-44.176827120052771
 21
-211.98521707378919
 31
0.0
  0
LINE
  5
287
  8
DATA
  6
CONTINUOUS
 62
     7
 10
-44.176827120052771
 20
-211.98521707378919
 30
0.0
 11
-43.426827120052771
 21
-210.6861789681125
 31
0.0
  0
LINE
  5
288
  8
DATA
  6
CONTINUOUS
 62
     7
 10
-37.00433637779966
 20
-215.36209869138941
 30
0.0
 11
-36.254336377799653
 21
-214.0630605857128
 31
0.0
  0
LINE
  5
289
  8
DATA
  6
CONTINUOUS
 62
     7
 10
-43.199849564918203
 20
-210.79304231044159
 30
0.0
 11
-42.949849564918203
 21
-210.36002960854941
 31
0.0
  0
LINE
  5
28A
  8
DATA
  6
CONTINUOUS
 62
     7
 10
-37.254336377799653
 20
-215.7951113932817
 30
0.0
 11
-44.426827120052778
 21
-212.4182297756814
 31
0.0
  0
LINE
  5
28B
  8
DATA
  6
CONTINUOUS
 62
     7
 10
-38.00433637779966
 20
-217.0941494989583
 30
0.0
 11
-45.176827120052771
 21
-213.717267881358
 31
0.0
  0
LINE
  5
28C
  8
DATA
  6
CONTINUOUS
 62
     7
 10
-45.176827120052771
 20
-213.717267881358
 30
0.0
 11
-44.426827120052778
 21
-212.4182297756814
 31
0.0
  0
LINE
  5
28D
  8
DATA
  6
CONTINUOUS
 62
     7
 10
-38.00433637779966
 20
-217.0941494989583
 30
0.0
 11
-37.254336377799653
 21
-215.7951113932817
 31
0.0
  0
LINE
  5
28E
  8
DATA
  6
CONTINUOUS
 62
     7
 10
-44.199849564918203
 20
-212.52509311801049
 30
0.0
 11
-43.949849564918203
 21
-212.09208041611831
 31
0.0
  0
LINE
  5
28F
  8
DATA
  6
CONTINUOUS
 62
     7
 10
-38.25433637779966
 20
-217.52716220085051
 30
0.0
 11
-45.426827120052771
 21
-214.15028058325021
 31
0.0
  0
LINE
  5
290
  8
DATA
  6
CONTINUOUS
 62
     7
 10
-39.004336377799653
 20
-218.8262003065272
 30
0.0
 11
-46.176827120052778
 21
-215.44931868892689
 31
0.0
  0
LINE
  5
291
  8
DATA
  6
CONTINUOUS
 62
     7
 10
-46.176827120052778
 20
-215.44931868892689
 30
0.0
 11
-45.426827120052771
 21
-214.15028058325021
 31
0.0
  0
LINE
  5
292
  8
DATA
  6
CONTINUOUS
 62
     7
 10
-39.004336377799653
 20
-218.8262003065272
 30
0.0
 11
-38.25433637779966
 21
-217.52716220085051
 31
0.0
  0
LINE
  5
293
  8
DATA
  6
CONTINUOUS
 62
     7
 10
-45.199849564918203
 20
-214.25714392557941
 30
0.0
 11
-44.949849564918203
 21
-213.8241312236872
 31
0.0
  0
LINE
  5
294
  8
DATA
  6
CONTINUOUS
 62
     7
 10
-39.25433637779966
 20
-219.25921300841949
 30
0.0
 11
-46.426827120052771
 21
-215.88233139081919
 31
0.0
  0
LINE
  5
295
  8
DATA
  6
CONTINUOUS
 62
     7
 10
-40.004336377799653
 20
-220.55825111409609
 30
0.0
 11
-47.176827120052771
 21
-217.1813694964959
 31
0.0
  0
LINE
  5
296
  8
DATA
  6
CONTINUOUS
 62
     7
 10
-47.176827120052771
 20
-217.1813694964959
 30
0.0
 11
-46.426827120052771
 21
-215.88233139081919
 31
0.0
  0
LINE
  5
297
  8
DATA
  6
CONTINUOUS
 62
     7
 10
-40.004336377799653
 20
-220.55825111409609
 30
0.0
 11
-39.25433637779966
 21
-219.25921300841949
 31
0.0
  0
LINE
  5
298
  8
DATA
  6
CONTINUOUS
 62
     7
 10
-46.199849564918203
 20
-215.98919473314831
 30
0.0
 11
-45.949849564918203
 21
-215.5561820312561
 31
0.0
  0
LINE
  5
299
  8
DATA
  6
CONTINUOUS
 62
     7
 10
-40.254336377799653
 20
-220.9912638159883
 30
0.0
 11
-47.426827120052778
 21
-217.614382198388
 31
0.0
  0
LINE
  5
29A
  8
DATA
  6
CONTINUOUS
 62
     7
 10
-41.004336377799653
 20
-222.29030192166499
 30
0.0
 11
-48.176827120052778
 21
-218.91342030406469
 31
0.0
  0
LINE
  5
29B
  8
DATA
  6
CONTINUOUS
 62
     7
 10
-48.176827120052778
 20
-218.91342030406469
 30
0.0
 11
-47.426827120052778
 21
-217.614382198388
 31
0.0
  0
LINE
  5
29C
  8
DATA
  6
CONTINUOUS
 62
     7
 10
-41.004336377799653
 20
-222.29030192166499
 30
0.0
 11
-40.254336377799653
 21
-220.9912638159883
 31
0.0
  0
LINE
  5
29D
  8
DATA
  6
CONTINUOUS
 62
     7
 10
-47.199849564918203
 20
-217.72124554071709
 30
0.0
 11
-46.949849564918203
 21
-217.28823283882491
 31
0.0
  0
LINE
  5
29E
  8
DATA
  6
CONTINUOUS
 62
     7
 10
-41.254336377799653
 20
-222.7233146235572
 30
0.0
 11
-48.426827120052771
 21
-219.3464330059569
 31
0.0
  0
LINE
  5
29F
  8
DATA
  6
CONTINUOUS
 62
     7
 10
-42.004336377799653
 20
-224.0223527292338
 30
0.0
 11
-49.176827120052771
 21
-220.6454711116335
 31
0.0
  0
LINE
  5
2A0
  8
DATA
  6
CONTINUOUS
 62
     7
 10
-49.176827120052771
 20
-220.6454711116335
 30
0.0
 11
-48.426827120052771
 21
-219.3464330059569
 31
0.0
  0
LINE
  5
2A1
  8
DATA
  6
CONTINUOUS
 62
     7
 10
-42.004336377799653
 20
-224.0223527292338
 30
0.0
 11
-41.254336377799653
 21
-222.7233146235572
 31
0.0
  0
LINE
  5
2A2
  8
DATA
  6
CONTINUOUS
 62
     7
 10
-48.199849564918203
 20
-219.45329634828599
 30
0.0
 11
-47.949849564918203
 21
-219.02028364639381
 31
0.0
  0
LINE
  5
2A3
  8
DATA
  6
CONTINUOUS
 62
     7
 10
-42.254336377799653
 20
-224.4553654311261
 30
0.0
 11
-49.426827120052778
 21
-221.07848381352571
 31
0.0
  0
LINE
  5
2A4
  8
DATA
  6
CONTINUOUS
 62
     7
 10
-43.004336377799653
 20
-225.7544035368027
 30
0.0
 11
-50.176827120052778
 21
-222.37752191920239
 31
0.0
  0
LINE
  5
2A5
  8
DATA
  6
CONTINUOUS
 62
     7
 10
-50.176827120052778
 20
-222.37752191920239
 30
0.0
 11
-49.426827120052778
 21
-221.07848381352571
 31
0.0
  0
LINE
  5
2A6
  8
DATA
  6
CONTINUOUS
 62
     7
 10
-43.004336377799653
 20
-225.7544035368027
 30
0.0
 11
-42.254336377799653
 21
-224.4553654311261
 31
0.0
  0
LINE
  5
2A7
  8
DATA
  6
CONTINUOUS
 62
     7
 10
-49.199849564918203
 20
-221.18534715585491
 30
0.0
 11
-48.949849564918203
 21
-220.7523344539627
 31
0.0
  0
LINE
  5
2A8
  8
DATA
  6
CONTINUOUS
 62
     7
 10
-43.254336377799653
 20
-226.18741623869491
 30
0.0
 11
-50.426827120052771
 21
-222.8105346210946
 31
0.0
  0
LINE
  5
2A9
  8
DATA
  6
CONTINUOUS
 62
     7
 10
-44.004336377799653
 20
-227.48645434437159
 30
0.0
 11
-51.176827120052778
 21
-224.10957272677129
 31
0.0
  0
LINE
  5
2AA
  8
DATA
  6
CONTINUOUS
 62
     7
 10
-51.176827120052778
 20
-224.10957272677129
 30
0.0
 11
-50.426827120052771
 21
-222.8105346210946
 31
0.0
  0
LINE
  5
2AB
  8
DATA
  6
CONTINUOUS
 62
     7
 10
-44.004336377799653
 20
-227.48645434437159
 30
0.0
 11
-43.254336377799653
 21
-226.18741623869491
 31
0.0
  0
LINE
  5
2AC
  8
DATA
  6
CONTINUOUS
 62
     7
 10
-50.199849564918203
 20
-222.91739796342381
 30
0.0
 11
-49.949849564918203
 21
-222.4843852615316
 31
0.0
  0
LINE
  5
2AD
  8
DATA
  6
CONTINUOUS
 62
     7
 10
-44.254336377799653
 20
-227.9194670462638
 30
0.0
 11
-51.426827120052778
 21
-224.54258542866361
 31
0.0
  0
LINE
  5
2AE
  8
DATA
  6
CONTINUOUS
 62
     7
 10
-45.004336377799653
 20
-229.21850515194049
 30
0.0
 11
-52.176827120052771
 21
-225.84162353434019
 31
0.0
  0
LINE
  5
2AF
  8
DATA
  6
CONTINUOUS
 62
     7
 10
-52.176827120052771
 20
-225.84162353434019
 30
0.0
 11
-51.426827120052778
 21
-224.54258542866361
 31
0.0
  0
LINE
  5
2B0
  8
DATA
  6
CONTINUOUS
 62
     7
 10
-45.004336377799653
 20
-229.21850515194049
 30
0.0
 11
-44.254336377799653
 21
-227.9194670462638
 31
0.0
  0
LINE
  5
2B1
  8
DATA
  6
CONTINUOUS
 62
     7
 10
-51.199849564918203
 20
-224.64944877099271
 30
0.0
 11
-50.94984956491821
 21
-224.2164360691005
 31
0.0
  0
LINE
  5
2B2
  8
DATA
  6
CONTINUOUS
 62
     7
 10
-45.253983771526109
 20
-229.6516838644539
 30
0.0
 11
-52.426827120052778
 21
-226.2746362362324
 31
0.0
  0
LINE
  5
2B3
  8
DATA
  6
CONTINUOUS
 62
     7
 10
-46.550000000011217
 20
-236.50000000001381
 30
0.0
 11
-54.450000000011251
 21
-237.16178010472581
 31
0.0
  0
LINE
  5
2B4
  8
DATA
  6
CONTINUOUS
 62
     7
 10
-54.450000000011251
 20
-237.16178010472581
 30
0.0
 11
-54.450000000011251
 21
-232.8081735743651
 31
0.0
  0
LINE
  5
2B5
  8
DATA
  6
CONTINUOUS
 62
     7
 10
-46.550000000011217
 20
-236.50000000001381
 30
0.0
 11
-46.550000000011217
 21
-234.575165001333
 31
0.0
  0
LINE
  5
2B6
  8
DATA
  6
CONTINUOUS
 62
     7
 10
-52.19984956491821
 20
-226.38149957856149
 30
0.0
 11
-51.949849564918203
 21
-225.94848687666931
 31
0.0
  0
LINE
  5
2B7
  8
DATA
  6
CONTINUOUS
 62
     7
 10
-46.550000000011217
 20
-237.0000000000139
 30
0.0
 11
-54.450000000011251
 21
-237.66178010472581
 31
0.0
  0
LINE
  5
2B8
  8
DATA
  6
CONTINUOUS
 62
     7
 10
-46.550000000011217
 20
-238.50000000001381
 30
0.0
 11
-54.450000000011251
 21
-239.16178010472581
 31
0.0
  0
LINE
  5
2B9
  8
DATA
  6
CONTINUOUS
 62
     7
 10
-54.450000000011251
 20
-239.16178010472581
 30
0.0
 11
-54.450000000011251
 21
-237.66178010472581
 31
0.0
  0
LINE
  5
2BA
  8
DATA
  6
CONTINUOUS
 62
     7
 10
-46.550000000011217
 20
-238.50000000001381
 30
0.0
 11
-46.550000000011217
 21
-237.0000000000139
 31
0.0
  0
LINE
  5
2BB
  8
DATA
  6
CONTINUOUS
 62
     7
 10
-54.200000000011251
 20
-237.64083769634891
 30
0.0
 11
-54.200000000011251
 21
-237.14083769634891
 31
0.0
  0
LINE
  5
2BC
  8
DATA
  6
CONTINUOUS
 62
     7
 10
-46.550000000011217
 20
-239.0000000000139
 30
0.0
 11
-54.450000000011251
 21
-239.66178010472581
 31
0.0
  0
LINE
  5
2BD
  8
DATA
  6
CONTINUOUS
 62
     7
 10
-46.550000000011217
 20
-240.50000000001381
 30
0.0
 11
-54.450000000011251
 21
-241.16178010472581
 31
0.0
  0
LINE
  5
2BE
  8
DATA
  6
CONTINUOUS
 62
     7
 10
-54.450000000011251
 20
-241.16178010472581
 30
0.0
 11
-54.450000000011251
 21
-239.66178010472581
 31
0.0
  0
LINE
  5
2BF
  8
DATA
  6
CONTINUOUS
 62
     7
 10
-46.550000000011217
 20
-240.50000000001381
 30
0.0
 11
-46.550000000011217
 21
-239.0000000000139
 31
0.0
  0
LINE
  5
2C0
  8
DATA
  6
CONTINUOUS
 62
     7
 10
-54.200000000011251
 20
-239.64083769634891
 30
0.0
 11
-54.200000000011251
 21
-239.14083769634891
 31
0.0
  0
LINE
  5
2C1
  8
DATA
  6
CONTINUOUS
 62
     7
 10
-46.550000000011217
 20
-241.00000000001381
 30
0.0
 11
-54.450000000011251
 21
-241.66178010472581
 31
0.0
  0
LINE
  5
2C2
  8
DATA
  6
CONTINUOUS
 62
     7
 10
-46.550000000011217
 20
-242.50000000001381
 30
0.0
 11
-54.450000000011251
 21
-243.16178010472581
 31
0.0
  0
LINE
  5
2C3
  8
DATA
  6
CONTINUOUS
 62
     7
 10
-54.450000000011251
 20
-243.16178010472581
 30
0.0
 11
-54.450000000011251
 21
-241.66178010472581
 31
0.0
  0
LINE
  5
2C4
  8
DATA
  6
CONTINUOUS
 62
     7
 10
-46.550000000011217
 20
-242.50000000001381
 30
0.0
 11
-46.550000000011217
 21
-241.00000000001381
 31
0.0
  0
LINE
  5
2C5
  8
DATA
  6
CONTINUOUS
 62
     7
 10
-54.200000000011251
 20
-241.64083769634891
 30
0.0
 11
-54.200000000011251
 21
-241.14083769634891
 31
0.0
  0
LINE
  5
2C6
  8
DATA
  6
CONTINUOUS
 62
     7
 10
-46.550000000011217
 20
-243.00000000001381
 30
0.0
 11
-54.450000000011251
 21
-243.66178010472581
 31
0.0
  0
LINE
  5
2C7
  8
DATA
  6
CONTINUOUS
 62
     7
 10
-46.550000000011217
 20
-244.50000000001381
 30
0.0
 11
-54.450000000011251
 21
-245.16178010472581
 31
0.0
  0
LINE
  5
2C8
  8
DATA
  6
CONTINUOUS
 62
     7
 10
-54.450000000011251
 20
-245.16178010472581
 30
0.0
 11
-54.450000000011251
 21
-243.66178010472581
 31
0.0
  0
LINE
  5
2C9
  8
DATA
  6
CONTINUOUS
 62
     7
 10
-46.550000000011217
 20
-244.50000000001381
 30
0.0
 11
-46.550000000011217
 21
-243.00000000001381
 31
0.0
  0
LINE
  5
2CA
  8
DATA
  6
CONTINUOUS
 62
     7
 10
-54.200000000011251
 20
-243.64083769634891
 30
0.0
 11
-54.200000000011251
 21
-243.14083769634891
 31
0.0
  0
LINE
  5
2CB
  8
DATA
  6
CONTINUOUS
 62
     7
 10
-46.550000000011217
 20
-245.00000000001381
 30
0.0
 11
-54.450000000011251
 21
-245.66178010472581
 31
0.0
  0
LINE
  5
2CC
  8
DATA
  6
CONTINUOUS
 62
     7
 10
-46.550000000011217
 20
-246.50000000001381
 30
0.0
 11
-54.450000000011251
 21
-247.16178010472581
 31
0.0
  0
LINE
  5
2CD
  8
DATA
  6
CONTINUOUS
 62
     7
 10
-54.450000000011251
 20
-247.16178010472581
 30
0.0
 11
-54.450000000011251
 21
-245.66178010472581
 31
0.0
  0
LINE
  5
2CE
  8
DATA
  6
CONTINUOUS
 62
     7
 10
-46.550000000011217
 20
-246.50000000001381
 30
0.0
 11
-46.550000000011217
 21
-245.00000000001381
 31
0.0
  0
LINE
  5
2CF
  8
DATA
  6
CONTINUOUS
 62
     7
 10
-54.200000000011251
 20
-245.64083769634891
 30
0.0
 11
-54.200000000011251
 21
-245.14083769634891
 31
0.0
  0
LINE
  5
2D0
  8
DATA
  6
CONTINUOUS
 62
     7
 10
-46.550000000011217
 20
-247.00000000001381
 30
0.0
 11
-54.450000000011251
 21
-247.66178010472581
 31
0.0
  0
LINE
  5
2D1
  8
DATA
  6
CONTINUOUS
 62
     7
 10
-46.550000000011217
 20
-248.50000000001381
 30
0.0
 11
-54.450000000011251
 21
-249.16178010472581
 31
0.0
  0
LINE
  5
2D2
  8
DATA
  6
CONTINUOUS
 62
     7
 10
-54.450000000011251
 20
-249.16178010472581
 30
0.0
 11
-54.450000000011251
 21
-247.66178010472581
 31
0.0
  0
LINE
  5
2D3
  8
DATA
  6
CONTINUOUS
 62
     7
 10
-46.550000000011217
 20
-248.50000000001381
 30
0.0
 11
-46.550000000011217
 21
-247.00000000001381
 31
0.0
  0
LINE
  5
2D4
  8
DATA
  6
CONTINUOUS
 62
     7
 10
-54.200000000011251
 20
-247.64083769634891
 30
0.0
 11
-54.200000000011251
 21
-247.14083769634891
 31
0.0
  0
LINE
  5
2D5
  8
DATA
  6
CONTINUOUS
 62
     7
 10
-46.550000000011217
 20
-249.00000000001381
 30
0.0
 11
-54.450000000011251
 21
-249.66178010472581
 31
0.0
  0
LINE
  5
2D6
  8
DATA
  6
CONTINUOUS
 62
     7
 10
-46.550000000011217
 20
-250.50000000001381
 30
0.0
 11
-54.450000000011251
 21
-251.16178010472581
 31
0.0
  0
LINE
  5
2D7
  8
DATA
  6
CONTINUOUS
 62
     7
 10
-54.450000000011251
 20
-251.16178010472581
 30
0.0
 11
-54.450000000011251
 21
-249.66178010472581
 31
0.0
  0
LINE
  5
2D8
  8
DATA
  6
CONTINUOUS
 62
     7
 10
-46.550000000011217
 20
-250.50000000001381
 30
0.0
 11
-46.550000000011217
 21
-249.00000000001381
 31
0.0
  0
LINE
  5
2D9
  8
DATA
  6
CONTINUOUS
 62
     7
 10
-54.200000000011251
 20
-249.64083769634891
 30
0.0
 11
-54.200000000011251
 21
-249.14083769634891
 31
0.0
  0
LINE
  5
2DA
  8
DATA
  6
CONTINUOUS
 62
     7
 10
-46.550000000011217
 20
-251.00000000001381
 30
0.0
 11
-54.450000000011251
 21
-251.66178010472581
 31
0.0
  0
LINE
  5
2DB
  8
DATA
  6
CONTINUOUS
 62
     7
 10
-46.550000000011217
 20
-252.50000000001381
 30
0.0
 11
-54.450000000011251
 21
-253.16178010472581
 31
0.0
  0
LINE
  5
2DC
  8
DATA
  6
CONTINUOUS
 62
     7
 10
-54.450000000011251
 20
-253.16178010472581
 30
0.0
 11
-54.450000000011251
 21
-251.66178010472581
 31
0.0
  0
LINE
  5
2DD
  8
DATA
  6
CONTINUOUS
 62
     7
 10
-46.550000000011217
 20
-252.50000000001381
 30
0.0
 11
-46.550000000011217
 21
-251.00000000001381
 31
0.0
  0
LINE
  5
2DE
  8
DATA
  6
CONTINUOUS
 62
     7
 10
-54.200000000011251
 20
-251.64083769634891
 30
0.0
 11
-54.200000000011251
 21
-251.14083769634891
 31
0.0
  0
LINE
  5
2DF
  8
DATA
  6
CONTINUOUS
 62
     7
 10
-46.550000000011217
 20
-253.00000000001381
 30
0.0
 11
-54.450000000011251
 21
-253.66178010472581
 31
0.0
  0
LINE
  5
2E0
  8
DATA
  6
CONTINUOUS
 62
     7
 10
-46.550000000011217
 20
-254.50000000001381
 30
0.0
 11
-54.450000000011251
 21
-255.16178010472581
 31
0.0
  0
LINE
  5
2E1
  8
DATA
  6
CONTINUOUS
 62
     7
 10
-54.450000000011251
 20
-255.16178010472581
 30
0.0
 11
-54.450000000011251
 21
-253.66178010472581
 31
0.0
  0
LINE
  5
2E2
  8
DATA
  6
CONTINUOUS
 62
     7
 10
-46.550000000011217
 20
-254.50000000001381
 30
0.0
 11
-46.550000000011217
 21
-253.00000000001381
 31
0.0
  0
LINE
  5
2E3
  8
DATA
  6
CONTINUOUS
 62
     7
 10
-54.200000000011251
 20
-253.64083769634891
 30
0.0
 11
-54.200000000011251
 21
-253.14083769634891
 31
0.0
  0
LINE
  5
2E4
  8
DATA
  6
CONTINUOUS
 62
     7
 10
-46.550000000011217
 20
-255.00000000001381
 30
0.0
 11
-54.450000000011251
 21
-255.66178010472581
 31
0.0
  0
LINE
  5
2E5
  8
DATA
  6
CONTINUOUS
 62
     7
 10
-46.550000000011217
 20
-256.50000000001393
 30
0.0
 11
-54.450000000011251
 21
-257.16178010472589
 31
0.0
  0
LINE
  5
2E6
  8
DATA
  6
CONTINUOUS
 62
     7
 10
-54.450000000011251
 20
-257.16178010472589
 30
0.0
 11
-54.450000000011251
 21
-255.66178010472581
 31
0.0
  0
LINE
  5
2E7
  8
DATA
  6
CONTINUOUS
 62
     7
 10
-46.550000000011217
 20
-256.50000000001393
 30
0.0
 11
-46.550000000011217
 21
-255.00000000001381
 31
0.0
  0
LINE
  5
2E8
  8
DATA
  6
CONTINUOUS
 62
     7
 10
-54.200000000011251
 20
-255.64083769634891
 30
0.0
 11
-54.200000000011251
 21
-255.14083769634891
 31
0.0
  0
LINE
  5
2E9
  8
DATA
  6
CONTINUOUS
 62
     7
 10
-46.550000000011217
 20
-257.00000000001393
 30
0.0
 11
-54.450000000011251
 21
-257.66178010472578
 31
0.0
  0
LINE
  5
2EA
  8
DATA
  6
CONTINUOUS
 62
     7
 10
-46.550000000011217
 20
-258.50000000001393
 30
0.0
 11
-54.450000000011251
 21
-259.16178010472589
 31
0.0
  0
LINE
  5
2EB
  8
DATA
  6
CONTINUOUS
 62
     7
 10
-54.450000000011251
 20
-259.16178010472589
 30
0.0
 11
-54.450000000011251
 21
-257.66178010472578
 31
0.0
  0
LINE
  5
2EC
  8
DATA
  6
CONTINUOUS
 62
     7
 10
-46.550000000011217
 20
-258.50000000001393
 30
0.0
 11
-46.550000000011217
 21
-257.00000000001393
 31
0.0
  0
LINE
  5
2ED
  8
DATA
  6
CONTINUOUS
 62
     7
 10
-54.200000000011251
 20
-257.64083769634902
 30
0.0
 11
-54.200000000011251
 21
-257.14083769634902
 31
0.0
  0
LINE
  5
2EE
  8
DATA
  6
CONTINUOUS
 62
     7
 10
-46.550000000011217
 20
-259.00000000001393
 30
0.0
 11
-54.450000000011251
 21
-259.66178010472578
 31
0.0
  0
LINE
  5
2EF
  8
DATA
  6
CONTINUOUS
 62
     7
 10
-46.550000000011217
 20
-260.50000000001381
 30
0.0
 11
-54.450000000011251
 21
-261.16178010472589
 31
0.0
  0
LINE
  5
2F0
  8
DATA
  6
CONTINUOUS
 62
     7
 10
-54.450000000011251
 20
-261.16178010472589
 30
0.0
 11
-54.450000000011251
 21
-259.66178010472578
 31
0.0
  0
LINE
  5
2F1
  8
DATA
  6
CONTINUOUS
 62
     7
 10
-46.550000000011217
 20
-260.50000000001381
 30
0.0
 11
-46.550000000011217
 21
-259.00000000001393
 31
0.0
  0
LINE
  5
2F2
  8
DATA
  6
CONTINUOUS
 62
     7
 10
-54.200000000011251
 20
-259.64083769634902
 30
0.0
 11
-54.200000000011251
 21
-259.14083769634902
 31
0.0
  0
LINE
  5
2F3
  8
DATA
  6
CONTINUOUS
 62
     7
 10
-46.550000000011217
 20
-261.00000000001393
 30
0.0
 11
-54.450000000011251
 21
-261.66178010472578
 31
0.0
  0
LINE
  5
2F4
  8
DATA
  6
CONTINUOUS
 62
     7
 10
-46.550000000011217
 20
-262.50000000001381
 30
0.0
 11
-52.518750000011138
 21
-263.00000000001393
 31
0.0
  0
LINE
  5
2F5
  8
DATA
  6
CONTINUOUS
 62
     7
 10
-54.450000000011251
 20
-263.00000000001393
 30
0.0
 11
-54.450000000011251
 21
-261.66178010472578
 31
0.0
  0
LINE
  5
2F6
  8
DATA
  6
CONTINUOUS
 62
     7
 10
-46.550000000011217
 20
-262.50000000001381
 30
0.0
 11
-46.550000000011217
 21
-261.00000000001393
 31
0.0
  0
LINE
  5
2F7
  8
DATA
  6
CONTINUOUS
 62
     7
 10
-54.200000000011251
 20
-261.64083769634902
 30
0.0
 11
-54.200000000011251
 21
-261.14083769634902
 31
0.0
  0
LINE
  5
2F8
  8
DATA
  6
CONTINUOUS
 62
     7
 10
-34.481313932934263
 20
-210.49209562824589
 30
0.0
 11
-34.231313932934263
 21
-210.05908292635371
 31
0.0
  0
LINE
  5
2F9
  8
DATA
  6
CONTINUOUS
 62
     7
 10
-35.481313932934263
 20
-212.22414643581479
 30
0.0
 11
-35.231313932934263
 21
-211.79113373392261
 31
0.0
  0
LINE
  5
2FA
  8
DATA
  6
CONTINUOUS
 62
     7
 10
-36.481313932934263
 20
-213.95619724338371
 30
0.0
 11
-36.231313932934263
 21
-213.5231845414915
 31
0.0
  0
LINE
  5
2FB
  8
DATA
  6
CONTINUOUS
 62
     7
 10
-37.481313932934263
 20
-215.6882480509525
 30
0.0
 11
-37.231313932934263
 21
-215.25523534906031
 31
0.0
  0
LINE
  5
2FC
  8
DATA
  6
CONTINUOUS
 62
     7
 10
-38.481313932934263
 20
-217.42029885852139
 30
0.0
 11
-38.231313932934263
 21
-216.98728615662921
 31
0.0
  0
LINE
  5
2FD
  8
DATA
  6
CONTINUOUS
 62
     7
 10
-39.481313932934263
 20
-219.15234966609029
 30
0.0
 11
-39.231313932934263
 21
-218.71933696419811
 31
0.0
  0
LINE
  5
2FE
  8
DATA
  6
CONTINUOUS
 62
     7
 10
-40.481313932934249
 20
-220.88440047365921
 30
0.0
 11
-40.231313932934249
 21
-220.45138777176689
 31
0.0
  0
LINE
  5
2FF
  8
DATA
  6
CONTINUOUS
 62
     7
 10
-41.481313932934249
 20
-222.616451281228
 30
0.0
 11
-41.231313932934263
 21
-222.1834385793359
 31
0.0
  0
LINE
  5
300
  8
DATA
  6
CONTINUOUS
 62
     7
 10
-42.481313932934263
 20
-224.34850208879689
 30
0.0
 11
-42.231313932934249
 21
-223.91548938690471
 31
0.0
  0
LINE
  5
301
  8
DATA
  6
CONTINUOUS
 62
     7
 10
-43.481313932934249
 20
-226.0805528963659
 30
0.0
 11
-43.231313932934249
 21
-225.64754019447361
 31
0.0
  0
LINE
  5
302
  8
DATA
  6
CONTINUOUS
 62
     7
 10
-44.481313932934249
 20
-227.81260370393471
 30
0.0
 11
-44.231313932934249
 21
-227.3795910020425
 31
0.0
  0
LINE
  5
303
  8
DATA
  6
CONTINUOUS
 62
     7
 10
-45.481313932934249
 20
-229.5446545115035
 30
0.0
 11
-45.231313932934249
 21
-229.11164180961131
 31
0.0
  0
LINE
  5
304
  8
DATA
  6
CONTINUOUS
 62
     7
 10
-46.80000000001121
 20
-237.02094240839079
 30
0.0
 11
-46.80000000001121
 21
-236.52094240839079
 31
0.0
  0
LINE
  5
305
  8
DATA
  6
CONTINUOUS
 62
     7
 10
-46.80000000001121
 20
-239.02094240839079
 30
0.0
 11
-46.80000000001121
 21
-238.52094240839079
 31
0.0
  0
LINE
  5
306
  8
DATA
  6
CONTINUOUS
 62
     7
 10
-46.80000000001121
 20
-241.02094240839079
 30
0.0
 11
-46.80000000001121
 21
-240.52094240839079
 31
0.0
  0
LINE
  5
307
  8
DATA
  6
CONTINUOUS
 62
     7
 10
-46.80000000001121
 20
-243.02094240839079
 30
0.0
 11
-46.80000000001121
 21
-242.52094240839079
 31
0.0
  0
LINE
  5
308
  8
DATA
  6
CONTINUOUS
 62
     7
 10
-46.80000000001121
 20
-245.02094240839079
 30
0.0
 11
-46.80000000001121
 21
-244.52094240839079
 31
0.0
  0
LINE
  5
309
  8
DATA
  6
CONTINUOUS
 62
     7
 10
-46.80000000001121
 20
-247.02094240839079
 30
0.0
 11
-46.80000000001121
 21
-246.52094240839079
 31
0.0
  0
LINE
  5
30A
  8
DATA
  6
CONTINUOUS
 62
     7
 10
-46.80000000001121
 20
-249.02094240839079
 30
0.0
 11
-46.80000000001121
 21
-248.52094240839079
 31
0.0
  0
LINE
  5
30B
  8
DATA
  6
CONTINUOUS
 62
     7
 10
-46.80000000001121
 20
-251.02094240839079
 30
0.0
 11
-46.80000000001121
 21
-250.52094240839079
 31
0.0
  0
LINE
  5
30C
  8
DATA
  6
CONTINUOUS
 62
     7
 10
-46.80000000001121
 20
-253.02094240839079
 30
0.0
 11
-46.80000000001121
 21
-252.52094240839079
 31
0.0
  0
LINE
  5
30D
  8
DATA
  6
CONTINUOUS
 62
     7
 10
-46.80000000001121
 20
-255.02094240839079
 30
0.0
 11
-46.80000000001121
 21
-254.52094240839079
 31
0.0
  0
LINE
  5
30E
  8
DATA
  6
CONTINUOUS
 62
     7
 10
-46.80000000001121
 20
-257.02094240839091
 30
0.0
 11
-46.80000000001121
 21
-256.52094240839091
 31
0.0
  0
LINE
  5
30F
  8
DATA
  6
CONTINUOUS
 62
     7
 10
-46.80000000001121
 20
-259.02094240839091
 30
0.0
 11
-46.80000000001121
 21
-258.52094240839091
 31
0.0
  0
LINE
  5
310
  8
DATA
  6
CONTINUOUS
 62
     7
 10
-46.80000000001121
 20
-261.02094240839091
 30
0.0
 11
-46.80000000001121
 21
-260.52094240839091
 31
0.0
  0
LINE
  5
311
  8
DATA
  6
CONTINUOUS
 62
     7
 10
-46.80000000001121
 20
-263.00000000001393
 30
0.0
 11
-46.80000000001121
 21
-262.52094240839091
 31
0.0
  0
LINE
  5
312
  8
DATA
  6
CONTINUOUS
 62
     7
 10
-55.250000000011212
 20
-271.7000000000138
 30
0.0
 11
-55.250000000011212
 21
-267.90000000001379
 31
0.0
  0
LINE
  5
313
  8
DATA
  6
CONTINUOUS
 62
     7
 10
-45.750000000011212
 20
-271.7000000000138
 30
0.0
 11
-55.250000000011212
 21
-271.7000000000138
 31
0.0
  0
LINE
  5
314
  8
DATA
  6
CONTINUOUS
 62
     7
 10
-45.750000000011212
 20
-267.90000000001379
 30
0.0
 11
-45.750000000011212
 21
-271.7000000000138
 31
0.0
  0
LINE
  5
315
  8
DATA
  6
CONTINUOUS
 62
     7
 10
-55.250000000011212
 20
-267.90000000001379
 30
0.0
 11
-45.750000000011212
 21
-267.90000000001379
 31
0.0
  0
LINE
  5
316
  8
DATA
  6
CONTINUOUS
 62
     7
 10
-55.250000000011212
 20
-266.80000000001382
 30
0.0
 11
-55.250000000011212
 21
-263.00000000001393
 31
0.0
  0
LINE
  5
317
  8
DATA
  6
CONTINUOUS
 62
     7
 10
-45.750000000011212
 20
-266.80000000001382
 30
0.0
 11
-55.250000000011212
 21
-266.80000000001382
 31
0.0
  0
LINE
  5
318
  8
DATA
  6
CONTINUOUS
 62
     7
 10
-45.750000000011212
 20
-263.00000000001393
 30
0.0
 11
-45.750000000011212
 21
-266.80000000001382
 31
0.0
  0
LINE
  5
319
  8
DATA
  6
CONTINUOUS
 62
     7
 10
-55.250000000011212
 20
-263.00000000001393
 30
0.0
 11
-45.750000000011212
 21
-263.00000000001393
 31
0.0
  0
LINE
  5
31A
  8
DATA
  6
CONTINUOUS
 62
     7
 10
-54.450000000011251
 20
-267.90000000001379
 30
0.0
 11
-54.450000000011251
 21
-266.80000000001382
 31
0.0
  0
LINE
  5
31B
  8
DATA
  6
CONTINUOUS
 62
     7
 10
-46.550000000011217
 20
-267.90000000001379
 30
0.0
 11
-46.550000000011217
 21
-266.80000000001382
 31
0.0
  0
LINE
  5
31C
  8
DATA
  6
CONTINUOUS
 62
     7
 10
-54.450000000011251
 20
-272.80000000001382
 30
0.0
 11
-54.450000000011251
 21
-271.7000000000138
 31
0.0
  0
LINE
  5
31D
  8
DATA
  6
CONTINUOUS
 62
     7
 10
-46.550000000011217
 20
-272.80000000001382
 30
0.0
 11
-46.550000000011217
 21
-271.7000000000138
 31
0.0
  0
LINE
  5
31E
  8
DATA
  6
CONTINUOUS
 62
     7
 10
-55.250000000011212
 20
-272.80000000001382
 30
0.0
 11
-45.750000000011212
 21
-272.80000000001382
 31
0.0
  0
LINE
  5
31F
  8
DATA
  6
CONTINUOUS
 62
     7
 10
-55.250000000011212
 20
-286.7321187101943
 30
0.0
 11
-55.250000000011212
 21
-272.80000000001382
 31
0.0
  0
LINE
  5
320
  8
DATA
  6
CONTINUOUS
 62
     7
 10
-45.750000000011212
 20
-286.7321187101943
 30
0.0
 11
-45.750000000011212
 21
-272.80000000001382
 31
0.0
  0
LINE
  5
321
  8
DATA
  6
CONTINUOUS
 62
     7
 10
-33.481313932934263
 20
-208.760044820677
 30
0.0
 11
-33.231313932934263
 21
-208.32703211878481
 31
0.0
  0
LINE
  5
322
  8
DATA
  6
CONTINUOUS
 62
     7
 10
-32.481313932934263
 20
-207.0279940131081
 30
0.0
 11
-32.231313932934263
 21
-206.594981311216
 31
0.0
  0
LINE
  5
323
  8
DATA
  6
CONTINUOUS
 62
     7
 10
151.13876580365499
 20
92.541016013252786
 30
0.0
 11
155.88876580365499
 21
84.313774677300671
 31
0.0
  0
LINE
  5
324
  8
DATA
  6
CONTINUOUS
 62
     7
 10
-32.92225103977816
 20
-191.39171948510429
 30
0.0
 11
99.077748960221939
 21
37.238987113987527
 31
0.0
  0
LINE
  5
325
  8
DATA
  6
CONTINUOUS
 62
     7
 10
-25.128022405718252
 20
-195.8917194851042
 30
0.0
 11
106.8719775942819
 21
32.738987113987541
 31
0.0
  0
LINE
  5
326
  8
DATA
  6
CONTINUOUS
 62
     7
 10
-38.038757390724271
 20
-199.7537684421917
 30
0.0
 11
-36.138757390724287
 21
-196.46287190781081
 31
0.0
  0
LINE
  5
327
  8
DATA
  6
CONTINUOUS
 62
     7
 10
-29.811516054772131
 20
-204.5037684421917
 30
0.0
 11
-38.038757390724271
 21
-199.7537684421917
 31
0.0
  0
LINE
  5
328
  8
DATA
  6
CONTINUOUS
 62
     7
 10
-27.91151605477215
 20
-201.21287190781089
 30
0.0
 11
-29.811516054772131
 21
-204.5037684421917
 31
0.0
  0
LINE
  5
329
  8
DATA
  6
CONTINUOUS
 62
     7
 10
-36.138757390724287
 20
-196.46287190781081
 30
0.0
 11
-27.91151605477215
 21
-201.21287190781089
 31
0.0
  0
LINE
  5
32A
  8
DATA
  6
CONTINUOUS
 62
     7
 10
-35.58875739072429
 20
-195.51024396364801
 30
0.0
 11
-33.688757390724312
 21
-192.2193474292672
 31
0.0
  0
LINE
  5
32B
  8
DATA
  6
CONTINUOUS
 62
     7
 10
-27.361516054772132
 20
-200.26024396364801
 30
0.0
 11
-35.58875739072429
 21
-195.51024396364801
 31
0.0
  0
LINE
  5
32C
  8
DATA
  6
CONTINUOUS
 62
     7
 10
-25.461516054772162
 20
-196.9693474292672
 30
0.0
 11
-27.361516054772132
 21
-200.26024396364801
 31
0.0
  0
LINE
  5
32D
  8
DATA
  6
CONTINUOUS
 62
     7
 10
-33.688757390724312
 20
-192.2193474292672
 30
0.0
 11
-25.461516054772162
 21
-196.9693474292672
 31
0.0
  0
LINE
  5
32E
  8
DATA
  6
CONTINUOUS
 62
     7
 10
-35.445937067696782
 20
-196.86287190781081
 30
0.0
 11
-34.895937067696771
 21
-195.91024396364801
 31
0.0
  0
LINE
  5
32F
  8
DATA
  6
CONTINUOUS
 62
     7
 10
-28.604336377799729
 20
-200.81287190781089
 30
0.0
 11
-28.054336377799721
 21
-199.860243963648
 31
0.0
  0
LINE
  5
330
  8
DATA
  6
CONTINUOUS
 62
     7
 10
-32.995937067696772
 20
-192.61934742926709
 30
0.0
 11
-32.445937067696747
 21
-191.6667194851043
 31
0.0
  0
LINE
  5
331
  8
DATA
  6
CONTINUOUS
 62
     7
 10
-26.154336377799702
 20
-196.56934742926711
 30
0.0
 11
-25.60433637779969
 21
-195.6167194851042
 31
0.0
  0
LINE
  5
332
  8
DATA
  6
CONTINUOUS
 62
     7
 10
-32.922251039778189
 20
-191.39171948510429
 30
0.0
 11
-25.128022405718252
 21
-195.8917194851042
 31
0.0
  0
LINE
  5
333
  8
DATA
  6
CONTINUOUS
 62
     7
 10
98.861242609275834
 20
37.363987113987541
 30
0.0
 11
100.7612426092758
 21
40.654883648368369
 31
0.0
  0
LINE
  5
334
  8
DATA
  6
CONTINUOUS
 62
     7
 10
107.08848394522801
 20
32.613987113987541
 30
0.0
 11
98.861242609275834
 21
37.363987113987541
 31
0.0
  0
LINE
  5
335
  8
DATA
  6
CONTINUOUS
 62
     7
 10
108.9884839452279
 20
35.904883648368383
 30
0.0
 11
107.08848394522801
 21
32.613987113987541
 31
0.0
  0
LINE
  5
336
  8
DATA
  6
CONTINUOUS
 62
     7
 10
100.7612426092758
 20
40.654883648368369
 30
0.0
 11
108.9884839452279
 21
35.904883648368383
 31
0.0
  0
LINE
  5
337
  8
DATA
  6
CONTINUOUS
 62
     7
 10
101.31124260927579
 20
41.607511592531282
 30
0.0
 11
103.2112426092758
 21
44.898408126912088
 31
0.0
  0
LINE
  5
338
  8
DATA
  6
CONTINUOUS
 62
     7
 10
109.53848394522799
 20
36.857511592531282
 30
0.0
 11
101.31124260927579
 21
41.607511592531282
 31
0.0
  0
LINE
  5
339
  8
DATA
  6
CONTINUOUS
 62
     7
 10
111.4384839452279
 20
40.148408126912102
 30
0.0
 11
109.53848394522799
 21
36.857511592531282
 31
0.0
  0
LINE
  5
33A
  8
DATA
  6
CONTINUOUS
 62
     7
 10
103.2112426092758
 20
44.898408126912088
 30
0.0
 11
111.4384839452279
 21
40.148408126912102
 31
0.0
  0
LINE
  5
33B
  8
DATA
  6
CONTINUOUS
 62
     7
 10
101.4540629323033
 20
40.254883648368398
 30
0.0
 11
102.0040629323033
 21
41.207511592531297
 31
0.0
  0
LINE
  5
33C
  8
DATA
  6
CONTINUOUS
 62
     7
 10
108.29566362220039
 20
36.304883648368381
 30
0.0
 11
108.84566362220041
 21
37.25751159253128
 31
0.0
  0
LINE
  5
33D
  8
DATA
  6
CONTINUOUS
 62
     7
 10
106.3219775942819
 20
31.786359169824649
 30
0.0
 11
98.527748960221913
 21
36.286359169824692
 31
0.0
  0
LINE
  5
33E
  8
DATA
  6
CONTINUOUS
 62
     7
 10
153.75671499608609
 20
84.006595000328261
 30
0.0
 11
149.23359661368639
 21
90.517305637869299
 31
0.0
  0
LINE
  5
33F
  8
DATA
  6
CONTINUOUS
 62
     7
 10
152.4576768904094
 20
83.256595000328247
 30
0.0
 11
147.93455850800979
 21
89.767305637869313
 31
0.0
  0
LINE
  5
340
  8
DATA
  6
CONTINUOUS
 62
     7
 10
147.93455850800979
 20
89.767305637869313
 30
0.0
 11
149.23359661368639
 21
90.517305637869299
 31
0.0
  0
LINE
  5
341
  8
DATA
  6
CONTINUOUS
 62
     7
 10
152.4576768904094
 20
83.256595000328247
 30
0.0
 11
153.75671499608609
 21
84.006595000328261
 31
0.0
  0
LINE
  5
342
  8
DATA
  6
CONTINUOUS
 62
     7
 10
149.3767332713573
 20
90.311270491111685
 30
0.0
 11
149.80974597324951
 21
90.561270491111699
 31
0.0
  0
LINE
  5
343
  8
DATA
  6
CONTINUOUS
 62
     7
 10
151.10878407892611
 20
91.311270491111685
 30
0.0
 11
151.663765803655
 21
91.63168933927922
 31
0.0
  0
LINE
  5
344
  8
DATA
  6
CONTINUOUS
 62
     7
 10
152.02466418851719
 20
83.006595000328204
 30
0.0
 11
147.5015458061176
 21
89.517305637869313
 31
0.0
  0
LINE
  5
345
  8
DATA
  6
CONTINUOUS
 62
     7
 10
150.72562608284059
 20
82.256595000328218
 30
0.0
 11
146.20250770044089
 21
88.767305637869256
 31
0.0
  0
LINE
  5
346
  8
DATA
  6
CONTINUOUS
 62
     7
 10
146.20250770044089
 20
88.767305637869256
 30
0.0
 11
147.5015458061176
 21
89.517305637869313
 31
0.0
  0
LINE
  5
347
  8
DATA
  6
CONTINUOUS
 62
     7
 10
150.72562608284059
 20
82.256595000328218
 30
0.0
 11
152.02466418851719
 21
83.006595000328204
 31
0.0
  0
LINE
  5
348
  8
DATA
  6
CONTINUOUS
 62
     7
 10
147.6446824637884
 20
89.311270491111657
 30
0.0
 11
148.07769516568061
 21
89.561270491111685
 31
0.0
  0
LINE
  5
349
  8
DATA
  6
CONTINUOUS
 62
     7
 10
150.29261338094841
 20
82.006595000328232
 30
0.0
 11
145.76949499854871
 21
88.517305637869242
 31
0.0
  0
LINE
  5
34A
  8
DATA
  6
CONTINUOUS
 62
     7
 10
148.9935752752717
 20
81.256595000328218
 30
0.0
 11
144.47045689287219
 21
87.767305637869185
 31
0.0
  0
LINE
  5
34B
  8
DATA
  6
CONTINUOUS
 62
     7
 10
144.47045689287219
 20
87.767305637869185
 30
0.0
 11
145.76949499854871
 21
88.517305637869242
 31
0.0
  0
LINE
  5
34C
  8
DATA
  6
CONTINUOUS
 62
     7
 10
148.9935752752717
 20
81.256595000328218
 30
0.0
 11
150.29261338094841
 21
82.006595000328232
 31
0.0
  0
LINE
  5
34D
  8
DATA
  6
CONTINUOUS
 62
     7
 10
145.91263165621959
 20
88.311270491111657
 30
0.0
 11
146.34564435811171
 21
88.561270491111657
 31
0.0
  0
LINE
  5
34E
  8
DATA
  6
CONTINUOUS
 62
     7
 10
148.56056257337951
 20
81.006595000328261
 30
0.0
 11
144.0374441909801
 21
87.517305637869143
 31
0.0
  0
LINE
  5
34F
  8
DATA
  6
CONTINUOUS
 62
     7
 10
147.2615244677028
 20
80.256595000328261
 30
0.0
 11
142.7384060853035
 21
86.767305637869072
 31
0.0
  0
LINE
  5
350
  8
DATA
  6
CONTINUOUS
 62
     7
 10
142.7384060853035
 20
86.767305637869072
 30
0.0
 11
144.0374441909801
 21
87.517305637869143
 31
0.0
  0
LINE
  5
351
  8
DATA
  6
CONTINUOUS
 62
     7
 10
147.2615244677028
 20
80.256595000328261
 30
0.0
 11
148.56056257337951
 21
81.006595000328261
 31
0.0
  0
LINE
  5
352
  8
DATA
  6
CONTINUOUS
 62
     7
 10
144.180580848651
 20
87.311270491111543
 30
0.0
 11
144.6135935505431
 21
87.561270491111543
 31
0.0
  0
LINE
  5
353
  8
DATA
  6
CONTINUOUS
 62
     7
 10
146.82851176581059
 20
80.006595000328218
 30
0.0
 11
142.30539338341131
 21
86.517305637869086
 31
0.0
  0
LINE
  5
354
  8
DATA
  6
CONTINUOUS
 62
     7
 10
145.5294736601339
 20
79.256595000328204
 30
0.0
 11
141.0063552777346
 21
85.767305637869086
 31
0.0
  0
LINE
  5
355
  8
DATA
  6
CONTINUOUS
 62
     7
 10
141.0063552777346
 20
85.767305637869086
 30
0.0
 11
142.30539338341131
 21
86.517305637869086
 31
0.0
  0
LINE
  5
356
  8
DATA
  6
CONTINUOUS
 62
     7
 10
145.5294736601339
 20
79.256595000328204
 30
0.0
 11
146.82851176581059
 21
80.006595000328218
 31
0.0
  0
LINE
  5
357
  8
DATA
  6
CONTINUOUS
 62
     7
 10
142.44853004108219
 20
86.311270491111415
 30
0.0
 11
142.8815427429744
 21
86.561270491111443
 31
0.0
  0
LINE
  5
358
  8
DATA
  6
CONTINUOUS
 62
     7
 10
145.09646095824169
 20
79.006595000328232
 30
0.0
 11
140.57334257584239
 21
85.517305637869057
 31
0.0
  0
LINE
  5
359
  8
DATA
  6
CONTINUOUS
 62
     7
 10
143.79742285256509
 20
78.256595000328218
 30
0.0
 11
139.2743044701657
 21
84.767305637869057
 31
0.0
  0
LINE
  5
35A
  8
DATA
  6
CONTINUOUS
 62
     7
 10
139.2743044701657
 20
84.767305637869057
 30
0.0
 11
140.57334257584239
 21
85.517305637869057
 31
0.0
  0
LINE
  5
35B
  8
DATA
  6
CONTINUOUS
 62
     7
 10
143.79742285256509
 20
78.256595000328218
 30
0.0
 11
145.09646095824169
 21
79.006595000328232
 31
0.0
  0
LINE
  5
35C
  8
DATA
  6
CONTINUOUS
 62
     7
 10
140.7164792335133
 20
85.311270491111443
 30
0.0
 11
141.14949193540551
 21
85.561270491111443
 31
0.0
  0
LINE
  5
35D
  8
DATA
  6
CONTINUOUS
 62
     7
 10
143.36441015067291
 20
78.006595000328232
 30
0.0
 11
138.84129176827349
 21
84.517305637869057
 31
0.0
  0
LINE
  5
35E
  8
DATA
  6
CONTINUOUS
 62
     7
 10
142.0653720449962
 20
77.256595000328232
 30
0.0
 11
137.54225366259681
 21
83.767305637869043
 31
0.0
  0
LINE
  5
35F
  8
DATA
  6
CONTINUOUS
 62
     7
 10
137.54225366259681
 20
83.767305637869043
 30
0.0
 11
138.84129176827349
 21
84.517305637869057
 31
0.0
  0
LINE
  5
360
  8
DATA
  6
CONTINUOUS
 62
     7
 10
142.0653720449962
 20
77.256595000328232
 30
0.0
 11
143.36441015067291
 21
78.006595000328232
 31
0.0
  0
LINE
  5
361
  8
DATA
  6
CONTINUOUS
 62
     7
 10
138.9844284259444
 20
84.311270491111443
 30
0.0
 11
139.41744112783661
 21
84.561270491111429
 31
0.0
  0
LINE
  5
362
  8
DATA
  6
CONTINUOUS
 62
     7
 10
141.63235934310401
 20
77.006595000328218
 30
0.0
 11
137.10924096070471
 21
83.517305637869086
 31
0.0
  0
LINE
  5
363
  8
DATA
  6
CONTINUOUS
 62
     7
 10
140.3333212374273
 20
76.256595000328218
 30
0.0
 11
135.810202855028
 21
82.767305637869086
 31
0.0
  0
LINE
  5
364
  8
DATA
  6
CONTINUOUS
 62
     7
 10
135.810202855028
 20
82.767305637869086
 30
0.0
 11
137.10924096070471
 21
83.517305637869086
 31
0.0
  0
LINE
  5
365
  8
DATA
  6
CONTINUOUS
 62
     7
 10
140.3333212374273
 20
76.256595000328218
 30
0.0
 11
141.63235934310401
 21
77.006595000328218
 31
0.0
  0
LINE
  5
366
  8
DATA
  6
CONTINUOUS
 62
     7
 10
137.2523776183755
 20
83.311270491111429
 30
0.0
 11
137.68539032026769
 21
83.561270491111443
 31
0.0
  0
LINE
  5
367
  8
DATA
  6
CONTINUOUS
 62
     7
 10
139.90030853553509
 20
76.006595000328218
 30
0.0
 11
135.37719015313581
 21
82.517305637869086
 31
0.0
  0
LINE
  5
368
  8
DATA
  6
CONTINUOUS
 62
     7
 10
138.60127042985849
 20
75.256595000328218
 30
0.0
 11
134.0781520474591
 21
81.767305637869086
 31
0.0
  0
LINE
  5
369
  8
DATA
  6
CONTINUOUS
 62
     7
 10
134.0781520474591
 20
81.767305637869086
 30
0.0
 11
135.37719015313581
 21
82.517305637869086
 31
0.0
  0
LINE
  5
36A
  8
DATA
  6
CONTINUOUS
 62
     7
 10
138.60127042985849
 20
75.256595000328218
 30
0.0
 11
139.90030853553509
 21
76.006595000328218
 31
0.0
  0
LINE
  5
36B
  8
DATA
  6
CONTINUOUS
 62
     7
 10
135.52032681080669
 20
82.311270491111443
 30
0.0
 11
135.9533395126989
 21
82.561270491111443
 31
0.0
  0
LINE
  5
36C
  8
DATA
  6
CONTINUOUS
 62
     7
 10
138.16825772796631
 20
75.00659500032819
 30
0.0
 11
133.64513934556689
 21
81.517305637869043
 31
0.0
  0
LINE
  5
36D
  8
DATA
  6
CONTINUOUS
 62
     7
 10
136.86921962228979
 20
74.256595000328119
 30
0.0
 11
132.3461012398902
 21
80.767305637869057
 31
0.0
  0
LINE
  5
36E
  8
DATA
  6
CONTINUOUS
 62
     7
 10
132.3461012398902
 20
80.767305637869057
 30
0.0
 11
133.64513934556689
 21
81.517305637869043
 31
0.0
  0
LINE
  5
36F
  8
DATA
  6
CONTINUOUS
 62
     7
 10
136.86921962228979
 20
74.256595000328119
 30
0.0
 11
138.16825772796631
 21
75.00659500032819
 31
0.0
  0
LINE
  5
370
  8
DATA
  6
CONTINUOUS
 62
     7
 10
133.7882760032378
 20
81.311270491111443
 30
0.0
 11
134.22128870513001
 21
81.561270491111443
 31
0.0
  0
LINE
  5
371
  8
DATA
  6
CONTINUOUS
 62
     7
 10
136.43620692039769
 20
74.00659500032809
 30
0.0
 11
131.91308853799799
 21
80.517305637869086
 31
0.0
  0
LINE
  5
372
  8
DATA
  6
CONTINUOUS
 62
     7
 10
135.13716881472109
 20
73.256595000327991
 30
0.0
 11
130.61405043232119
 21
79.767305637869086
 31
0.0
  0
LINE
  5
373
  8
DATA
  6
CONTINUOUS
 62
     7
 10
130.61405043232119
 20
79.767305637869086
 30
0.0
 11
131.91308853799799
 21
80.517305637869086
 31
0.0
  0
LINE
  5
374
  8
DATA
  6
CONTINUOUS
 62
     7
 10
135.13716881472109
 20
73.256595000327991
 30
0.0
 11
136.43620692039769
 21
74.00659500032809
 31
0.0
  0
LINE
  5
375
  8
DATA
  6
CONTINUOUS
 62
     7
 10
132.0562251956689
 20
80.311270491111443
 30
0.0
 11
132.48923789756111
 21
80.561270491111443
 31
0.0
  0
LINE
  5
376
  8
DATA
  6
CONTINUOUS
 62
     7
 10
134.70415611282891
 20
73.006595000327991
 30
0.0
 11
130.1810377304289
 21
79.517305637869086
 31
0.0
  0
LINE
  5
377
  8
DATA
  6
CONTINUOUS
 62
     7
 10
133.40511800715231
 20
72.256595000327991
 30
0.0
 11
128.88199962475221
 21
78.767305637869086
 31
0.0
  0
LINE
  5
378
  8
DATA
  6
CONTINUOUS
 62
     7
 10
128.88199962475221
 20
78.767305637869086
 30
0.0
 11
130.1810377304289
 21
79.517305637869086
 31
0.0
  0
LINE
  5
379
  8
DATA
  6
CONTINUOUS
 62
     7
 10
133.40511800715231
 20
72.256595000327991
 30
0.0
 11
134.70415611282891
 21
73.006595000327991
 31
0.0
  0
LINE
  5
37A
  8
DATA
  6
CONTINUOUS
 62
     7
 10
130.32417438809981
 20
79.311270491111443
 30
0.0
 11
130.75718708999199
 21
79.561270491111443
 31
0.0
  0
LINE
  5
37B
  8
DATA
  6
CONTINUOUS
 62
     7
 10
132.97210530525999
 20
72.006595000328019
 30
0.0
 11
128.44898692286
 21
78.517305637869086
 31
0.0
  0
LINE
  5
37C
  8
DATA
  6
CONTINUOUS
 62
     7
 10
131.67306719958339
 20
71.256595000328019
 30
0.0
 11
127.1499488171833
 21
77.767305637869086
 31
0.0
  0
LINE
  5
37D
  8
DATA
  6
CONTINUOUS
 62
     7
 10
127.1499488171833
 20
77.767305637869086
 30
0.0
 11
128.44898692286
 21
78.517305637869086
 31
0.0
  0
LINE
  5
37E
  8
DATA
  6
CONTINUOUS
 62
     7
 10
131.67306719958339
 20
71.256595000328019
 30
0.0
 11
132.97210530525999
 21
72.006595000328019
 31
0.0
  0
LINE
  5
37F
  8
DATA
  6
CONTINUOUS
 62
     7
 10
128.59212358053091
 20
78.311270491111443
 30
0.0
 11
129.02513628242309
 21
78.561270491111443
 31
0.0
  0
LINE
  5
380
  8
DATA
  6
CONTINUOUS
 62
     7
 10
131.24005449769109
 20
71.006595000327991
 30
0.0
 11
126.71693611529111
 21
77.517305637869086
 31
0.0
  0
LINE
  5
381
  8
DATA
  6
CONTINUOUS
 62
     7
 10
129.94101639201421
 20
70.256595000327991
 30
0.0
 11
125.4178980096145
 21
76.767305637869086
 31
0.0
  0
LINE
  5
382
  8
DATA
  6
CONTINUOUS
 62
     7
 10
125.4178980096145
 20
76.767305637869086
 30
0.0
 11
126.71693611529111
 21
77.517305637869086
 31
0.0
  0
LINE
  5
383
  8
DATA
  6
CONTINUOUS
 62
     7
 10
129.94101639201421
 20
70.256595000327991
 30
0.0
 11
131.24005449769109
 21
71.006595000327991
 31
0.0
  0
LINE
  5
384
  8
DATA
  6
CONTINUOUS
 62
     7
 10
126.860072772962
 20
77.311270491111443
 30
0.0
 11
127.29308547485419
 21
77.561270491111443
 31
0.0
  0
LINE
  5
385
  8
DATA
  6
CONTINUOUS
 62
     7
 10
129.508003690122
 20
70.006595000328005
 30
0.0
 11
124.98488530772229
 21
76.517305637869086
 31
0.0
  0
LINE
  5
386
  8
DATA
  6
CONTINUOUS
 62
     7
 10
123.9956636222004
 20
63.498081327199714
 30
0.0
 11
116.82317287994729
 21
66.874962944799975
 31
0.0
  0
LINE
  5
387
  8
DATA
  6
CONTINUOUS
 62
     7
 10
123.9956636222004
 20
63.498081327199714
 30
0.0
 11
126.2061587889693
 21
67.326771265928855
 31
0.0
  0
LINE
  5
388
  8
DATA
  6
CONTINUOUS
 62
     7
 10
125.1280219653931
 20
76.311270491111443
 30
0.0
 11
125.5610346672853
 21
76.561270491111443
 31
0.0
  0
LINE
  5
389
  8
DATA
  6
CONTINUOUS
 62
     7
 10
123.7456636222004
 20
63.065068625307489
 30
0.0
 11
116.57317287994729
 21
66.441950242907751
 31
0.0
  0
LINE
  5
38A
  8
DATA
  6
CONTINUOUS
 62
     7
 10
122.9956636222004
 20
61.766030519630853
 30
0.0
 11
115.82317287994729
 21
65.142912137231093
 31
0.0
  0
LINE
  5
38B
  8
DATA
  6
CONTINUOUS
 62
     7
 10
122.9956636222004
 20
61.766030519630853
 30
0.0
 11
123.7456636222004
 21
63.065068625307489
 31
0.0
  0
LINE
  5
38C
  8
DATA
  6
CONTINUOUS
 62
     7
 10
122.7456636222004
 20
61.333017817738622
 30
0.0
 11
115.57317287994729
 21
64.709899435338883
 31
0.0
  0
LINE
  5
38D
  8
DATA
  6
CONTINUOUS
 62
     7
 10
121.9956636222004
 20
60.033979712061971
 30
0.0
 11
114.82317287994729
 21
63.410861329662247
 31
0.0
  0
LINE
  5
38E
  8
DATA
  6
CONTINUOUS
 62
     7
 10
114.82317287994729
 20
63.410861329662247
 30
0.0
 11
115.57317287994729
 21
64.709899435338883
 31
0.0
  0
LINE
  5
38F
  8
DATA
  6
CONTINUOUS
 62
     7
 10
121.9956636222004
 20
60.033979712061971
 30
0.0
 11
122.7456636222004
 21
61.333017817738622
 31
0.0
  0
LINE
  5
390
  8
DATA
  6
CONTINUOUS
 62
     7
 10
121.7456636222004
 20
59.600967010169768
 30
0.0
 11
114.57317287994729
 21
62.977848627770022
 31
0.0
  0
LINE
  5
391
  8
DATA
  6
CONTINUOUS
 62
     7
 10
120.9956636222004
 20
58.301928904493103
 30
0.0
 11
113.82317287994729
 21
61.678810522093357
 31
0.0
  0
LINE
  5
392
  8
DATA
  6
CONTINUOUS
 62
     7
 10
113.82317287994729
 20
61.678810522093357
 30
0.0
 11
114.57317287994729
 21
62.977848627770022
 31
0.0
  0
LINE
  5
393
  8
DATA
  6
CONTINUOUS
 62
     7
 10
120.9956636222004
 20
58.301928904493103
 30
0.0
 11
121.7456636222004
 21
59.600967010169768
 31
0.0
  0
LINE
  5
394
  8
DATA
  6
CONTINUOUS
 62
     7
 10
114.8001504350819
 20
62.870985285440881
 30
0.0
 11
115.0501504350819
 21
63.303997987333098
 31
0.0
  0
LINE
  5
395
  8
DATA
  6
CONTINUOUS
 62
     7
 10
120.7456636222004
 20
57.8689162026009
 30
0.0
 11
113.57317287994729
 21
61.24579782020114
 31
0.0
  0
LINE
  5
396
  8
DATA
  6
CONTINUOUS
 62
     7
 10
119.9956636222004
 20
56.569878096924249
 30
0.0
 11
112.82317287994729
 21
59.946759714524497
 31
0.0
  0
LINE
  5
397
  8
DATA
  6
CONTINUOUS
 62
     7
 10
112.82317287994729
 20
59.946759714524497
 30
0.0
 11
113.57317287994729
 21
61.24579782020114
 31
0.0
  0
LINE
  5
398
  8
DATA
  6
CONTINUOUS
 62
     7
 10
119.9956636222004
 20
56.569878096924249
 30
0.0
 11
120.7456636222004
 21
57.8689162026009
 31
0.0
  0
LINE
  5
399
  8
DATA
  6
CONTINUOUS
 62
     7
 10
113.8001504350819
 20
61.13893447787202
 30
0.0
 11
114.0501504350819
 21
61.571947179764237
 31
0.0
  0
LINE
  5
39A
  8
DATA
  6
CONTINUOUS
 62
     7
 10
119.7456636222004
 20
56.136865395032032
 30
0.0
 11
112.57317287994729
 21
59.513747012632301
 31
0.0
  0
LINE
  5
39B
  8
DATA
  6
CONTINUOUS
 62
     7
 10
118.9956636222004
 20
54.837827289355381
 30
0.0
 11
111.82317287994729
 21
58.21470890695565
 31
0.0
  0
LINE
  5
39C
  8
DATA
  6
CONTINUOUS
 62
     7
 10
111.82317287994729
 20
58.21470890695565
 30
0.0
 11
112.57317287994729
 21
59.513747012632301
 31
0.0
  0
LINE
  5
39D
  8
DATA
  6
CONTINUOUS
 62
     7
 10
118.9956636222004
 20
54.837827289355381
 30
0.0
 11
119.7456636222004
 21
56.136865395032032
 31
0.0
  0
LINE
  5
39E
  8
DATA
  6
CONTINUOUS
 62
     7
 10
112.8001504350819
 20
59.406883670303152
 30
0.0
 11
113.0501504350819
 21
59.839896372195383
 31
0.0
  0
LINE
  5
39F
  8
DATA
  6
CONTINUOUS
 62
     7
 10
118.7456636222004
 20
54.404814587463179
 30
0.0
 11
111.57317287994729
 21
57.781696205063433
 31
0.0
  0
LINE
  5
3A0
  8
DATA
  6
CONTINUOUS
 62
     7
 10
117.9956636222004
 20
53.105776481786528
 30
0.0
 11
110.82317287994729
 21
56.482658099386782
 31
0.0
  0
LINE
  5
3A1
  8
DATA
  6
CONTINUOUS
 62
     7
 10
110.82317287994729
 20
56.482658099386782
 30
0.0
 11
111.57317287994729
 21
57.781696205063433
 31
0.0
  0
LINE
  5
3A2
  8
DATA
  6
CONTINUOUS
 62
     7
 10
117.9956636222004
 20
53.105776481786528
 30
0.0
 11
118.7456636222004
 21
54.404814587463179
 31
0.0
  0
LINE
  5
3A3
  8
DATA
  6
CONTINUOUS
 62
     7
 10
111.8001504350819
 20
57.674832862734291
 30
0.0
 11
112.0501504350819
 21
58.107845564626523
 31
0.0
  0
LINE
  5
3A4
  8
DATA
  6
CONTINUOUS
 62
     7
 10
117.7456636222004
 20
52.672763779894289
 30
0.0
 11
110.57317287994729
 21
56.049645397494558
 31
0.0
  0
LINE
  5
3A5
  8
DATA
  6
CONTINUOUS
 62
     7
 10
116.9956636222004
 20
51.373725674217638
 30
0.0
 11
109.82317287994729
 21
54.750607291817921
 31
0.0
  0
LINE
  5
3A6
  8
DATA
  6
CONTINUOUS
 62
     7
 10
109.82317287994729
 20
54.750607291817921
 30
0.0
 11
110.57317287994729
 21
56.049645397494558
 31
0.0
  0
LINE
  5
3A7
  8
DATA
  6
CONTINUOUS
 62
     7
 10
116.9956636222004
 20
51.373725674217638
 30
0.0
 11
117.7456636222004
 21
52.672763779894289
 31
0.0
  0
LINE
  5
3A8
  8
DATA
  6
CONTINUOUS
 62
     7
 10
110.8001504350819
 20
55.942782055165431
 30
0.0
 11
111.0501504350819
 21
56.375794757057648
 31
0.0
  0
LINE
  5
3A9
  8
DATA
  6
CONTINUOUS
 62
     7
 10
116.7456636222004
 20
50.940712972325422
 30
0.0
 11
109.57317287994729
 21
54.31759458992569
 31
0.0
  0
LINE
  5
3AA
  8
DATA
  6
CONTINUOUS
 62
     7
 10
115.9956636222004
 20
49.641674866648763
 30
0.0
 11
108.82317287994729
 21
53.018556484249061
 31
0.0
  0
LINE
  5
3AB
  8
DATA
  6
CONTINUOUS
 62
     7
 10
108.82317287994729
 20
53.018556484249061
 30
0.0
 11
109.57317287994729
 21
54.31759458992569
 31
0.0
  0
LINE
  5
3AC
  8
DATA
  6
CONTINUOUS
 62
     7
 10
115.9956636222004
 20
49.641674866648763
 30
0.0
 11
116.7456636222004
 21
50.940712972325422
 31
0.0
  0
LINE
  5
3AD
  8
DATA
  6
CONTINUOUS
 62
     7
 10
109.8001504350819
 20
54.210731247596541
 30
0.0
 11
110.0501504350819
 21
54.643743949488773
 31
0.0
  0
LINE
  5
3AE
  8
DATA
  6
CONTINUOUS
 62
     7
 10
115.7456636222004
 20
49.208662164756568
 30
0.0
 11
108.57317287994729
 21
52.585543782356822
 31
0.0
  0
LINE
  5
3AF
  8
DATA
  6
CONTINUOUS
 62
     7
 10
114.9956636222004
 20
47.909624059079889
 30
0.0
 11
107.82317287994729
 21
51.286505676680171
 31
0.0
  0
LINE
  5
3B0
  8
DATA
  6
CONTINUOUS
 62
     7
 10
107.82317287994729
 20
51.286505676680171
 30
0.0
 11
108.57317287994729
 21
52.585543782356822
 31
0.0
  0
LINE
  5
3B1
  8
DATA
  6
CONTINUOUS
 62
     7
 10
114.9956636222004
 20
47.909624059079889
 30
0.0
 11
115.7456636222004
 21
49.208662164756568
 31
0.0
  0
LINE
  5
3B2
  8
DATA
  6
CONTINUOUS
 62
     7
 10
108.8001504350819
 20
52.478680440027681
 30
0.0
 11
109.0501504350819
 21
52.911693141919891
 31
0.0
  0
LINE
  5
3B3
  8
DATA
  6
CONTINUOUS
 62
     7
 10
114.7456636222004
 20
47.476611357187672
 30
0.0
 11
107.57317287994729
 21
50.85349297478794
 31
0.0
  0
LINE
  5
3B4
  8
DATA
  6
CONTINUOUS
 62
     7
 10
113.9956636222004
 20
46.177573251510971
 30
0.0
 11
106.82317287994729
 21
49.554454869111311
 31
0.0
  0
LINE
  5
3B5
  8
DATA
  6
CONTINUOUS
 62
     7
 10
106.82317287994729
 20
49.554454869111311
 30
0.0
 11
107.57317287994729
 21
50.85349297478794
 31
0.0
  0
LINE
  5
3B6
  8
DATA
  6
CONTINUOUS
 62
     7
 10
113.9956636222004
 20
46.177573251510971
 30
0.0
 11
114.7456636222004
 21
47.476611357187672
 31
0.0
  0
LINE
  5
3B7
  8
DATA
  6
CONTINUOUS
 62
     7
 10
107.8001504350819
 20
50.746629632458799
 30
0.0
 11
108.0501504350819
 21
51.179642334351023
 31
0.0
  0
LINE
  5
3B8
  8
DATA
  6
CONTINUOUS
 62
     7
 10
113.7456636222004
 20
45.744560549618768
 30
0.0
 11
106.57317287994729
 21
49.121442167219087
 31
0.0
  0
LINE
  5
3B9
  8
DATA
  6
CONTINUOUS
 62
     7
 10
112.9956636222004
 20
44.445522443942117
 30
0.0
 11
105.82317287994729
 21
47.822404061542429
 31
0.0
  0
LINE
  5
3BA
  8
DATA
  6
CONTINUOUS
 62
     7
 10
105.82317287994729
 20
47.822404061542429
 30
0.0
 11
106.57317287994729
 21
49.121442167219087
 31
0.0
  0
LINE
  5
3BB
  8
DATA
  6
CONTINUOUS
 62
     7
 10
112.9956636222004
 20
44.445522443942117
 30
0.0
 11
113.7456636222004
 21
45.744560549618768
 31
0.0
  0
LINE
  5
3BC
  8
DATA
  6
CONTINUOUS
 62
     7
 10
106.8001504350819
 20
49.014578824889888
 30
0.0
 11
107.0501504350819
 21
49.447591526782112
 31
0.0
  0
LINE
  5
3BD
  8
DATA
  6
CONTINUOUS
 62
     7
 10
112.7456636222004
 20
44.012509742049893
 30
0.0
 11
105.57317287994729
 21
47.389391359650233
 31
0.0
  0
LINE
  5
3BE
  8
DATA
  6
CONTINUOUS
 62
     7
 10
111.9956636222004
 20
42.713471636373242
 30
0.0
 11
104.82317287994729
 21
46.090353253973561
 31
0.0
  0
LINE
  5
3BF
  8
DATA
  6
CONTINUOUS
 62
     7
 10
104.82317287994729
 20
46.090353253973561
 30
0.0
 11
105.57317287994729
 21
47.389391359650233
 31
0.0
  0
LINE
  5
3C0
  8
DATA
  6
CONTINUOUS
 62
     7
 10
111.9956636222004
 20
42.713471636373242
 30
0.0
 11
112.7456636222004
 21
44.012509742049893
 31
0.0
  0
LINE
  5
3C1
  8
DATA
  6
CONTINUOUS
 62
     7
 10
105.8001504350819
 20
47.282528017321027
 30
0.0
 11
106.0501504350819
 21
47.71554071921323
 31
0.0
  0
LINE
  5
3C2
  8
DATA
  6
CONTINUOUS
 62
     7
 10
111.7456636222004
 20
42.280458934480997
 30
0.0
 11
104.57317287994729
 21
45.657340552081337
 31
0.0
  0
LINE
  5
3C3
  8
DATA
  6
CONTINUOUS
 62
     7
 10
110.9956636222004
 20
40.981420828804353
 30
0.0
 11
105.5765744933621
 21
43.532783126912122
 31
0.0
  0
LINE
  5
3C4
  8
DATA
  6
CONTINUOUS
 62
     7
 10
103.9040629323033
 20
44.498408126912153
 30
0.0
 11
104.57317287994729
 21
45.657340552081337
 31
0.0
  0
LINE
  5
3C5
  8
DATA
  6
CONTINUOUS
 62
     7
 10
110.9956636222004
 20
40.981420828804353
 30
0.0
 11
111.7456636222004
 21
42.280458934480997
 31
0.0
  0
LINE
  5
3C6
  8
DATA
  6
CONTINUOUS
 62
     7
 10
104.8001504350819
 20
45.550477209752131
 30
0.0
 11
105.0501504350819
 21
45.983489911644362
 31
0.0
  0
LINE
  5
3C7
  8
DATA
  6
CONTINUOUS
 62
     7
 10
148.41742591570861
 20
81.212630147085903
 30
0.0
 11
148.85043861760079
 21
81.462630147085903
 31
0.0
  0
LINE
  5
3C8
  8
DATA
  6
CONTINUOUS
 62
     7
 10
146.68537510813971
 20
80.212630147085903
 30
0.0
 11
147.11838781003189
 21
80.462630147085903
 31
0.0
  0
LINE
  5
3C9
  8
DATA
  6
CONTINUOUS
 62
     7
 10
144.95332430057081
 20
79.212630147085903
 30
0.0
 11
145.38633700246311
 21
79.462630147085903
 31
0.0
  0
LINE
  5
3CA
  8
DATA
  6
CONTINUOUS
 62
     7
 10
143.221273493002
 20
78.212630147085875
 30
0.0
 11
143.65428619489421
 21
78.462630147085903
 31
0.0
  0
LINE
  5
3CB
  8
DATA
  6
CONTINUOUS
 62
     7
 10
141.48922268543311
 20
77.212630147085861
 30
0.0
 11
141.92223538732529
 21
77.462630147085875
 31
0.0
  0
LINE
  5
3CC
  8
DATA
  6
CONTINUOUS
 62
     7
 10
139.75717187786429
 20
76.212630147085875
 30
0.0
 11
140.1901845797565
 21
76.462630147085861
 31
0.0
  0
LINE
  5
3CD
  8
DATA
  6
CONTINUOUS
 62
     7
 10
138.02512107029551
 20
75.212630147085804
 30
0.0
 11
138.45813377218769
 21
75.462630147085804
 31
0.0
  0
LINE
  5
3CE
  8
DATA
  6
CONTINUOUS
 62
     7
 10
136.29307026272679
 20
74.212630147085704
 30
0.0
 11
136.726082964619
 21
74.462630147085733
 31
0.0
  0
LINE
  5
3CF
  8
DATA
  6
CONTINUOUS
 62
     7
 10
134.561019455158
 20
73.212630147085633
 30
0.0
 11
134.9940321570503
 21
73.462630147085633
 31
0.0
  0
LINE
  5
3D0
  8
DATA
  6
CONTINUOUS
 62
     7
 10
132.82896864758911
 20
72.212630147085633
 30
0.0
 11
133.2619813494814
 21
72.462630147085633
 31
0.0
  0
LINE
  5
3D1
  8
DATA
  6
CONTINUOUS
 62
     7
 10
131.0969178400201
 20
71.212630147085633
 30
0.0
 11
131.52993054191251
 21
71.462630147085662
 31
0.0
  0
LINE
  5
3D2
  8
DATA
  6
CONTINUOUS
 62
     7
 10
129.36486703245109
 20
70.212630147085633
 30
0.0
 11
129.79787973434341
 21
70.462630147085633
 31
0.0
  0
LINE
  5
3D3
  8
DATA
  6
CONTINUOUS
 62
     7
 10
123.5186860670658
 20
63.17193196763661
 30
0.0
 11
123.7686860670658
 21
63.60494466952882
 31
0.0
  0
LINE
  5
3D4
  8
DATA
  6
CONTINUOUS
 62
     7
 10
122.5186860670658
 20
61.439881160067749
 30
0.0
 11
122.7686860670658
 21
61.872893861959973
 31
0.0
  0
LINE
  5
3D5
  8
DATA
  6
CONTINUOUS
 62
     7
 10
121.5186860670658
 20
59.707830352498902
 30
0.0
 11
121.7686860670658
 21
60.140843054391098
 31
0.0
  0
LINE
  5
3D6
  8
DATA
  6
CONTINUOUS
 62
     7
 10
120.5186860670658
 20
57.975779544930042
 30
0.0
 11
120.7686860670658
 21
58.408792246822237
 31
0.0
  0
LINE
  5
3D7
  8
DATA
  6
CONTINUOUS
 62
     7
 10
119.5186860670658
 20
56.243728737361167
 30
0.0
 11
119.7686860670658
 21
56.676741439253391
 31
0.0
  0
LINE
  5
3D8
  8
DATA
  6
CONTINUOUS
 62
     7
 10
118.5186860670658
 20
54.511677929792299
 30
0.0
 11
118.7686860670658
 21
54.944690631684523
 31
0.0
  0
LINE
  5
3D9
  8
DATA
  6
CONTINUOUS
 62
     7
 10
117.5186860670658
 20
52.779627122223431
 30
0.0
 11
117.7686860670658
 21
53.212639824115648
 31
0.0
  0
LINE
  5
3DA
  8
DATA
  6
CONTINUOUS
 62
     7
 10
116.5186860670658
 20
51.047576314654528
 30
0.0
 11
116.7686860670658
 21
51.48058901654678
 31
0.0
  0
LINE
  5
3DB
  8
DATA
  6
CONTINUOUS
 62
     7
 10
115.5186860670658
 20
49.31552550708566
 30
0.0
 11
115.7686860670658
 21
49.74853820897787
 31
0.0
  0
LINE
  5
3DC
  8
DATA
  6
CONTINUOUS
 62
     7
 10
114.5186860670658
 20
47.583474699516792
 30
0.0
 11
114.7686860670658
 21
48.016487401408988
 31
0.0
  0
LINE
  5
3DD
  8
DATA
  6
CONTINUOUS
 62
     7
 10
113.5186860670658
 20
45.851423891947881
 30
0.0
 11
113.7686860670658
 21
46.284436593840091
 31
0.0
  0
LINE
  5
3DE
  8
DATA
  6
CONTINUOUS
 62
     7
 10
112.5186860670658
 20
44.119373084378999
 30
0.0
 11
112.7686860670658
 21
44.552385786271209
 31
0.0
  0
LINE
  5
3DF
  8
DATA
  6
CONTINUOUS
 62
     7
 10
111.5186860670658
 20
42.38732227681011
 30
0.0
 11
111.7686860670658
 21
42.820334978702327
 31
0.0
  0
LINE
  5
3E0
  8
DATA
  6
CONTINUOUS
 62
     7
 10
110.52915727125431
 20
40.67340812691215
 30
0.0
 11
110.7686860670658
 21
41.088284171133452
 31
0.0
  0
LINE
  5
3E1
  8
DATA
  6
CONTINUOUS
 62
     7
 10
150.1494767232775
 20
82.212630147085903
 30
0.0
 11
150.58248942516971
 21
82.462630147085903
 31
0.0
  0
LINE
  5
3E2
  8
DATA
  6
CONTINUOUS
 62
     7
 10
153.61357833841521
 20
84.212630147085903
 30
0.0
 11
154.0465910403075
 21
84.462630147085889
 31
0.0
  0
LINE
  5
3E3
  8
DATA
  6
CONTINUOUS
 62
     7
 10
155.34562914598411
 20
85.212630147085903
 30
0.0
 11
155.36376580365501
 21
85.223101351274352
 31
0.0
  0
LINE
  5
3E4
  8
DATA
  6
CONTINUOUS
 62
     7
 10
155.48876580365501
 20
85.006595000328218
 30
0.0
 11
150.96564742125531
 21
91.517305637869313
 31
0.0
  0
LINE
  5
3E5
  8
DATA
  6
CONTINUOUS
 62
     7
 10
154.18972769797841
 20
84.256595000328232
 30
0.0
 11
149.6666093155786
 21
90.767305637869313
 31
0.0
  0
LINE
  5
3E6
  8
DATA
  6
CONTINUOUS
 62
     7
 10
149.6666093155786
 20
90.767305637869313
 30
0.0
 11
150.96564742125531
 21
91.517305637869313
 31
0.0
  0
LINE
  5
3E7
  8
DATA
  6
CONTINUOUS
 62
     7
 10
154.18972769797841
 20
84.256595000328232
 30
0.0
 11
155.48876580365501
 21
85.006595000328218
 31
0.0
  0
LINE
  5
3E8
  8
DATA
  6
CONTINUOUS
 62
     7
 10
-52.426827120052778
 20
-226.2746362362324
 30
0.0
 11
-53.49741326181735
 21
-228.5485593582541
 31
0.0
  0
ARC
  5
3E9
  8
DATA
  6
CONTINUOUS
 62
     7
 10
-44.450000000011251
 20
-232.80817357436499
 30
0.0
 40
9.999999999999984
 50
154.78846655031381
 51
180.00000000000011
  0
ARC
  5
3EA
  8
DATA
  6
CONTINUOUS
 62
     7
 10
-36.55000000001121
 20
-234.57516500133309
 30
0.0
 40
10.000000000000011
 50
150.50496653864511
 51
179.99999999999989
  0
LINE
  5
3EB
  8
DATA
  6
CONTINUOUS
 62
     7
 10
115.82317287994729
 20
65.142912137231093
 30
0.0
 11
116.57317287994729
 21
66.441950242907751
 31
0.0
  0
LINE
  5
3EC
  8
DATA
  6
CONTINUOUS
 62
     7
 10
116.82317287994729
 20
66.874962944799975
 30
0.0
 11
120.0210336205285
 21
72.413820223016373
 31
0.0
  0
LINE
  5
3ED
  8
DATA
  6
CONTINUOUS
 62
     7
 10
124.98488530772229
 20
76.517305637869086
 30
0.0
 11
122.949236850804
 21
75.342023453291873
 31
0.0
  0
LINE
  5
3EE
  8
DATA
  6
CONTINUOUS
 62
     7
 10
129.508003690122
 20
70.006595000328005
 30
0.0
 11
128.03628580789149
 21
69.156898284851039
 31
0.0
  0
ARC
  5
3EF
  8
DATA
  6
CONTINUOUS
 62
     7
 10
130.53628580789149
 20
64.826771265928855
 30
0.0
 40
5.0000000000000044
 50
119.9999999999999
 51
150.0
  0
ARC
  5
3F0
  8
DATA
  6
CONTINUOUS
 62
     7
 10
126.949236850804
 20
68.413820223016373
 30
0.0
 40
7.9999999999999849
 50
120.0000000000001
 51
150.0
  0
LINE
  5
3F1
  8
DATA
  6
CONTINUOUS
 62
     7
 10
115.8001504350819
 20
64.603036093009763
 30
0.0
 11
116.0501504350819
 21
65.036048794901973
 31
0.0
  0
LINE
  5
3F2
  8
DATA
  6
CONTINUOUS
 62
     7
 10
116.8001504350819
 20
66.335086900578645
 30
0.0
 11
117.0501504350819
 21
66.768099602470869
 31
0.0
  0
ENDSEC
  0
EOF
